» » »

I Don't Know Anything Tabs (ver.3)

Artists:  A B C D E F G H I J K L M N O P Q R S T U V W X Y Z # 

I Don't Know Anything Tabs (ver.3)

Mad Season
Rating:
0/5 (0 votes)

Hard to play? Try these video lessons and learn fast.
                (Intro)
heres just a little thing i screw around with when im just starting to play sometimes =]


e|--------------------------------------------------------|
B|--------------------------------------------------------|
G|--------------------------------------------------------|
D|--------------------------------------------------------|
A|--------------------------------------------------------|
E|--/16---0-16-0-16-0-3b----------------------------------|

e|--------------------------------------------------------|
B|--------------------------------------------------------|
G|--------------------------------------------------------|
D|--------------------------------------------------------|
A|--------------------------------------------------------|
E|--/16---0-16-0-16-0-3b----------------------------------|

e|--------------------------------------------------------|
B|--------------------------------------------------------|
G|--------------------------------------------------------|
D|--------------------------------------------------------|
A|--------------------------------------------------------|
E|--/16---0-16-0-16-0-3b----------------------------------|

e|--------------------------------------------------------|
B|--------------------------------------------------------|
G|--------------------------------------------------------|
D|--------------------------------------------------------|
A|-----------------------17-14----------------------------|
E|--/16---0-16-0-16-0-3b----------------------------------|

there ya be, dont critisize me please,
            
Hard to play? Try these video lessons and learn fast. | Correct




comments powered by Disqus
↑ Back to top | Tablatures and chords are parodies/interpretations of the original songs. You may use it for private study, scholarship, research or language learning purposes only