>
 >
Never Take Us Alive 2

Never Take Us Alive 2 Guitar Tabs

Madina Lake - Never Take Us Alive 2 chords, tabs, tablatures, lyrics

Guitar lessons | Add/correct | Request | Top 50 tabs Artists:  A B C D E F G H I J K L M N O P Q R S T U V W X Y Z 0-9

Never Take Us Alive 2 Guitar Tabs – Madina Lake

CD, Sheet music, Poster

Do you like Never Take Us Alive 2? Share with your friends now
Bass TabsBass Tabs v2ChordsTabsTabs v2Tabs v3Ukulele
First tab, it isnt perfect but its a start :)

b = Bend
h = Hammer

E-5-5-5-7-5-5-8-5-5-5-7-5-5-5------|
G----------------------------------|
B----------------------------------|            X4
D----------------------------------|
A----------------------------------|
E----------------------------------|

E----------------------------------|
G-5-5-5-7-5-5-8-5-5-5-7-5-5-5------|
B----------------------------------|            X8
D----------------------------------|
A----------------------------------|
E----------------------------------|

E-5-5-5-7-5-5-8-5-5-5-7-5-5-5------|
G----------------------------------|
B----------------------------------|            X8
D----------------------------------|
A----------------------------------|
E----------------------------------|

E----------------------------------|
G----------------------------------|
B----------------------------------|            X1
D-5-5-5-7-5-5-8-5-5-5-7-5-5-5------|
A-5-5-5-7-5-5-8-5-5-5-7-5-5-5------|
E----------------------------------|

E-5-5-5-7-5-5-8-5-5-5-7-5-5-5------|
G----------------------------------|
B----------------------------------|            X8
D----------------------------------|
A----------------------------------|
E----------------------------------|

E------------------------------------------------|
G-9-3h4-4-5-5-5-7-7-7-9-9-9-12-12-12-15-15-15b---|
B----------------------------------------------2-|            X1
D----------------------------------------------2-|
A----------------------------------------------2-|
E------------------------------------------------|

E-5-5-5-7-5-5-8-5-5-5-7-5-5-5------|
G----------------------------------|
B----------------------------------|            X8
D----------------------------------|
A----------------------------------|
E----------------------------------|

E----------------------------------|
G----------------------------------|
B----------------------------------|            X1
D-5-5-5-7-5-7-5--------------------|
A-5-7-5-7-5-7-5--------------------|
E----------------------------------|

I know its not perfect so i'll leave you to improve it :D





Comments


Popular Madina Lake tabs & chords
Here I Stand Bass Tabs
True Love Bass Tabs
Adalia 3 Chords
In Another Life Chords
Stars Chords
Never Take Us Alive Tabs
Statistics Tabs
The Auspice Tabs
Never Walk Alone Ukulele
River People Ukulele


Song lyrics



↑ Back to top | Tablatures and chords are parodies/interpretations of the original songs. You may use it for private study, scholarship, research or language learning purposes only
© 2014 AZChords.com Contact us | Privacy policy | DMCA | Add/correct tabs | Request tabs | Top 50 tabs