>
 >
Never Take Us Alive 1

Never Take Us Alive 1 Bass Tabs

Madina Lake - Never Take Us Alive 1 chords, tabs, tablatures, lyrics

Guitar lessons | Add/correct | Request | Top 50 tabs Artists:  A B C D E F G H I J K L M N O P Q R S T U V W X Y Z 0-9

Never Take Us Alive 1 Bass Tabs – Madina Lake

CD, Sheet music, Poster

Do you like Never Take Us Alive 1? Share with your friends now
Bass TabsBass Tabs v2ChordsTabsTabs v2Tabs v3Ukulele
I don't know this song or this band but I promised to tab it for a friend. Also, because 
don't have the song on my iPod, I am tabbing using my shitty computer speakers so there 
be some intricacies missing, or I may hear something that's not even there!

Tuning: Dropped D
G-
D-
A-
D-

Intro
|----------------|----------------|----------------|----------------|
|----------------|----------------|----------------|----------------|
|----------------|----------------|----5-5-----5-5-|----5-5---------|
|0-0-0-0-0-0-0-0-|8-8-8-8-8-8-8-8-|5-5-----5-5-----|5-5-----5-3-3-2-|

|----------------|----------------|----------------|----------------|
|----------------|----------------|----------------|----------------|
|----------------|----------------|----------------|----------------|
|0-0-0-0-0-0-0-0-|8-8-8-8-8-8-8-8-|5-5-5-5-5-5-5-5-|5-5-5-5-5-5-5-5-|

Verse
|----------------|----------------|----------------|----------------|
|----------------|----------------|----------------|----------------|
|1-1-1-1-1-1-1-1-|1-1-1-1-1-3-3-3-|----------------|----------------|
|----------------|----------------|5-5-5-5-5-5-5-5-|5-5-5-5-5-5-5-5-|

|----------------|----------------|----------------|------------------|
|----------------|----------------|----------------|------------------|
|1-1-1-1-1-1-1-1-|1-1-1-1-1-3-3-3-|----------------|--12-10-0-6-5-3-5-|
|----------------|----------------|5-5-5-5-5-5-5-5-|5-----------------|

|----------------|----------------|----------------|----------------|
|----------------|----------------|----------------|----------------|
|1-1-1-1-1-1-1-1-|1-1-1-1-1-3-3-3-|----------------|5-5-3-3-6-6-5-5-|
|----------------|----------------|5-5-5-5-5-5-5-5-|----------------|

|----------------|----------------|----------------|----------------|
|----------------|----------------|----------------|----------------|
|----------------|----------------|----------------|----------------|
|2-2-2-2-2-2-2-2-|2-2-2-2-2-2-2-2-|1-1-1-1-1-1-1-1-|1-1-1-1-1-1-1-1-|

Chorus-
just the intro a few times. There may be some quiet fills that my speakers aren't 
up but you're not gonna get them off me. Make up your own!

Post-chorus
|--------------|-----------------|
|------5-------|-----------------|
|--5-5---5-----|---8-5---3-5-5-5-| x 2
|0-----------0-|0------0---------|

The bassist is pretty crap and seems to just pedal the lowest-string open to the rhythm 
that riff. You can either but the riff sounds better.


Verse
|----------------|----------------|----------------|----------------|
|----------------|----------------|----------------|----------------|
|1-1-1-1-1-1-1-1-|1-1-1-1-1-3-3-3-|----------------|----------------|
|----------------|----------------|5-5-5-5-5-5-5-5-|5-5-5-5-5-5-5-5-|

|----------------|----------------|----------------|------------------|
|----------------|----------------|----------------|------------------|
|1-1-1-1-1-1-1-1-|1-1-1-1-1-3-3-3-|----------------|--12-10-0-6-5-3-5-|
|----------------|----------------|5-5-5-5-5-5-5-5-|5-----------------|

|----------------|----------------|
|----------------|----------------|
|----------------|----------------| play this for however many times before
|0-0-----------0-|--0-------------| the chorus


Chorus-
Same concept, I'm too lazy to tab the intro AGAIN but with slightly different fills. In 
I don't think this chorus even has any fills.

Solo
|----------------|----------------|----------------|----------------|
|----------------|----------------|----------------|----------------|
|----------------|----------------|1-1-1-1-1-1-1-1-|3-3-3-3-3-3-3-3-|
|0-0-0-0-0-0-0-0-|0-0-0-0-0-0-0-0-|----------------|----------------|
(but to the rhythm of the cool guitar riff)

Break
Same idea as the end of the last verse, pedal
|---------|
|---------|
|---------| to the rythm of the bass drum
|0--------|

Chorus-
again the laziness. PLAY THE INTRO!

Outro
|------------------------|
|------------------------|
|------------------------|
|0003-335558-101012\-----|

I think it's dull, but apparently some people do actually listen to this so maybe this 
will get notice by someone other than my friend. If not then:
Hi, Bekah!!





Comments


Popular Madina Lake tabs & chords
Well Be Ok Chords
Here I Stand Drum Tabs
Here I Stand 1 Tabs
Here I Stand 2 Tabs
Legends Tabs
Let's Get Outta Here Tabs
Never Take Us Alive 2 Tabs
Now Or Never Tabs
Hey Superstar Ukulele
Pandora Ukulele


Song lyrics



↑ Back to top | Tablatures and chords are parodies/interpretations of the original songs. You may use it for private study, scholarship, research or language learning purposes only
© 2014 AZChords.com Contact us | Privacy policy | DMCA | Add/correct tabs | Request tabs | Top 50 tabs