» » »

Madina Lake, Never Take Us Alive Bass tabs (ver.1)

Artists:  A B C D E F G H I J K L M N O P Q R S T U V W X Y Z # 

Never Take Us Alive Bass tabs (ver.1)

Madina Lake Tabs
Rating:
3/5 (1 vote)
Never Take Us Alive lessons Tabs too difficult? Try these video lessons and learn fast
                -------------------------------------------------------------------------------
-------------------------------------------------------------------------------


Tuning: E-A-D-G

Intro(2x):
G|---------------------------------------------------------------------------|
D|---------------------------------------------------------------------------|
A|-----------------1-1-1-1-1-1-1-1-------------------------------------------|
D|-0-0-0-0-0-0-0-0-----------------5-5-5-5-5-5-5-5-5-5-5-5-5-5-5-5-----------|

Verse:
G|---------------------------------------------------------------------------|
D|---------------------------------------------------------------------------|
A|-1-1-1-1-1-1-1-1-1-1-1-1-1-3-3-3-------------------------------------------|
D|---------------------------------5-5-5-5-5-5-5-5-5-5-5-5-5-5-5-5-----------|

G|---------------------------------------------------------------------------|
D|---------------------------------------------------7-5---------------------|
A|-1-1-1-1-1-1-1-1-1-1-1-1-1-3-3-3-----------------------8-7-8-7-5-----------|
D|---------------------------------5-5-5-5-5-5-5-5-5-------------------------|

G|---------------------------------------------------------------------------|
D|---------------------------------------------------5-5-5-------------------|
A|-1-1-1-1-1-1-1-1-1-1-1-1-1-3-3-3-------------------------8-8-7-7-----------|
D|---------------------------------5-5-5-5-5-5-5-5-5-------------------------|

G|---------------------------------------------------------------------------|
D|---------------------------------------------------------------------------|
A|---------------------------------------------------------------------------|
D|-3-3-3-3-3-3-3-3-3-3-3-3-3-3-3-3-2-2-2-2-2-2-2-2/12-12-12-12-12-12-12-12---|

Chorus(4x):
G|---------------------------------------------------------------------------|
D|---------------------------------------------------------------------------|
A|-----------------1-1-1-1-1-1-1-1-------------------------------------------|
D|-0-0-0-0-0-0-0-0-----------------5-5-5-5-5-5-5-5-5-5-5-5-5-5-5-5-----------|

Bridge:
G|---------------------------------------------------------------------------|
D|---------------------------------------------------------------------------|
A|-----------------3-3-3-3-3-3-3-3-1-1-1-1-1-1-1-1---------------------------|
D|-0-0-0-0-0-0-0-0---------------------------------5-5-5-5-5-5-5-5-----------|

Verse:
G|---------------------------------------------------------------------------|
D|---------------------------------------------------------------------------|
A|-1-1-1-1-1-1-1-1-1-1-1-1-1-3-3-3-------------------------------------------|
D|---------------------------------5-5-5-5-5-5-5-5-5-5-5-5-5-5-5-5-----------|

G|---------------------------------------------------------------------------|
D|---------------------------------------------------7-5---------------------|
A|-1-1-1-1-1-1-1-1-1-1-1-1-1-3-3-3-----------------------8-7-8-7-5-----------|
D|---------------------------------5-5-5-5-5-5-5-5-5-------------------------|

G|---------------------------------------------------------------------------|
D|---------------------------------------------------------------------------|
A|---------------------------------------------------------------------------|
D|-0-0-----------0--0--------------0-0-------------0--0----------------------|

G|---------------------------------------------------------------------------|
D|---------------------------------------------------------------------------|
A|---------------------------------------------------------------------------|
D|-0-0-----------0--0--------------0-0---------------------------------------|

Chorus(4x):
G|---------------------------------------------------------------------------|
D|---------------------------------------------------------------------------|
A|-----------------1-1-1-1-1-1-1-1-------------------------------------------|
D|-0-0-0-0-0-0-0-0-----------------5-5-5-5-5-5-5-5-5-5-5-5-5-5-5-5-----------|

Bridge(2x):
G|---------------------------------------------------------------------------|
D|---------------------------------------------------------------------------|
A|-----------------3-3-3-3-3-3-3-3-1-1-1-1-1-1-1-1---------------------------|
D|-0-0-0-0-0-0-0-0---------------------------------5-5-5-5-5-5-5-5-----------|


Chorus(4x):
G|---------------------------------------------------------------------------|
D|---------------------------------------------------------------------------|
A|-----------------1-1-1-1-1-1-1-1-------------------------------------------|
D|-0-0-0-0-0-0-0-0-----------------5-5-5-5-5-5-5-5-5-5-5-5-5-5-5-5-----------|

Outro:
G|---------------------------------------------------------------------------|
D|---------------------------------------------------------------------------|
A|-----------------------------------5---------------------------------------|
D|-0-0-0-3-3-3-3-3-5-5-5-8-8-8-10-10-0---------------------------------------|


| /  slide up
| \  slide down
| h  hammer-on
| p  pull-off
| ~  vibrato
| +  harmonic
| x  Mute note
===============================================================================
            

comments powered by Disqus
↑ Back to top | Madina Lake Bass for Never Take Us Alive. Lyrics for acoustic guitar and electric guitar. Tablatures and chords are parodies/interpretations of the original songs. You may use it for private study, scholarship, research or language learning purposes only