» » »

Madina Lake, Never Take Us Alive Tabs (ver.1)

Artists:  A B C D E F G H I J K L M N O P Q R S T U V W X Y Z # 

Never Take Us Alive Tabs (ver.1)

Madina Lake Tabs
Rating:
0/5 (0 votes)
Never Take Us Alive lessons Tabs too difficult? Try these video lessons and learn fast
                So yeah the VER 2 one was good but the intro was wrong and the solo is missing. so 
here is the better version =].

Madina Lake only has one guitarist (unless the lead singer is rhythm but the 
albums just say that he's the singer), but I'm writing it for two guitars.


DROP D: DADGBe

Key:
. = palm mute
/ = slide up
\ = slide down
~ = let ring
h = hammer on


INTRO---
(palm mute everything)
|------------------------------------|
|------------------------------------|
|------------------------------------|
|------------------------------------|
|-0--------3--------5--------7-------|
|-0-(16x)--3-(16x)--5-(16x)--7-(16x)-|
  .        .        .        .

Guitar 1:
|----------15----------------13-------------------------|
|-13-15-15----15-15-13-15-15----15-15-13-15-15-15-(x4)--|
|-------------------------------------------------------|
|-------------------------------------------------------|
|-------------------------------------------------------|
|-------------------------------------------------------|

Guitar 2:
|-------------------------------------------------------|
|-------------------------------------------------------|
|-------------------------------------------------------|
|-0------------------------8----------------------------|\
|-0--(8x)------------------8--(8x)----------------------| \
|-0------------------------8----------------------------|  \
                                                            - x2 
|-------------------------------------------------------|  /
|-------------------------------------------------------| /
|-------------------------------------------------------|/
|-5-----------------------------------------------------|
|-5--(16x)----------------------------------------------|
|-5-----------------------------------------------------|


VERSE 1---
Guitar 1:
|-------------------------------------------------------|
|-------------------------------------------------------|
|----------12----------------10-------------------------|
|-10-12-12----12-12-10-12-12----12-12-10-12-12-12--(8x)-|
|-------------------------------------------------------|
|-------------------------------------------------------|

Guitar 2:
(comes in after the fourth time of what guitar 1 plays)
(all downward strums)
(palm mute everything)
|-------------------------------------------------------|
|-------------------------------------------------------|
|-------------------------------------------------------|
|-------------------------------------------------------|
|-8-(16x)--5-(16x)--3-(16x)--2-(16x)--------------------|
|-8--------5--------3--------2--------------------------|
  .        .        .        ^
                             --- on this part slowly release the palm mute

CHORUS---
Guitar 1:
|----------15----------------13-------------------------|
|-13-15-15----15-15-13-15-15----15-15-13-15-15-15-(x8)--|
|-------------------------------------------------------|
|-------------------------------------------------------|
|-------------------------------------------------------|
|-------------------------------------------------------|

Guitar 2:
|-------------------------------------------------------|
|-------------------------------------------------------|
|-------------------------------------------------------|
|-0------------------------8----------------------------|\
|-0--(8x)------------------8--(8x)----------------------| \
|-0------------------------8----------------------------|  \
                                                            - x4
|-------------------------------------------------------|  /
|-------------------------------------------------------| /
|-------------------------------------------------------|/
|-5-----------------------------------------------------|
|-5--(16x)----------------------------------------------|
|-5-----------------------------------------------------|


POSTCHORUS---
Both guitars:
|--------------------------------------|
|--------------------------------------|
|--------------------------------------|
|-------5-----------3------------------|
|-3-5-5---5-5-3-5-5---5-5-3-5-5-5-(2x)-|
|--------------------------------------|


VERSE 2---
it's effects for the first half of the verse, so it's hard to tab out.
but here's the second half.

Both guitars:
|-----------------------------------------------------------------|
|-----------------------------------------------------------------|
|-----------------------------------------------------------------|
|-----------------------------------------------------------------|
|-0-0----0--0------0-0----0--0------0-0----0--0------0-0----0--0--|
|-0-0----0--0------0-0----0--0------0-0----0--0------0-0----0--0--|
  . .    .  .      . .    .  .      . .    .  .      . .    .  .


REPEAT CHORUS


SOLO---
Guitar 1:
(strumming might be wrong a bit but the notes are DEFINITELY right)
|-------------------------------------------------------------|
|-------------------------------------------------------------|
|-12-12-12-12-11h12-11-11-11-11-11----------------------------|
|----------------------------------12-12-12-12-12-10-12-12-12-|
|-------------------------------------------------------------|
|-------------------------------------------------------------|

|----------------------------------------------------|
|-------------------10-10-10-13-13-13-13-13-13-13-13-|
|-10-10-10-12-12-12----------------------------------|
|----------------------------------------------------|
|----------------------------------------------------|
|----------------------------------------------------|

|-------------------------------13----13----13---------|
|-15-15-15-15-15-15-15-15-15-15----15----15----15-15~--|
|------------------------------------------------------|
|------------------------------------------------------|
|------------------------------------------------------|
|------------------------------------------------------|

Guitar 2:
|--------------------------------------|
|--------------------------------------|
|--------------------------------------|
|-------5-----------3------------------|
|-3-5-5---5-5-3-5-5---5-5-3-5-5-5-(4x)-|
|--------------------------------------|


BRIDGE---
Both guitars:
|---------------------------------------|
|---------------------------------------|
|---------------------------------------|
|-0~~~----------------------------------|
|-0~~~--------0-0~~-----0~~------0-0~~--|
|-0~~~--------0-0~~-----0~~------0-0~~--|
              . .       .        . .

REPEAT CHORUS


OUTRO:
|-----------------------------------------|
|-----------------------------------------|
|-----------------------------------------|
|-0-0-0-3-3-3-3-3-5-5-5-8-8-8-10-10-12\\--|
|-0-0-0-3-3-3-3-3-5-5-5-8-8-8-10-10-12\\--|
|-0-0-0-3-3-3-3-3-5-5-5-8-8-8-10-10-12\\--|


Hope you enjoyed =]
            
Submit corrections

comments powered by Disqus
↑ Back to top | Madina Lake Tabs for Never Take Us Alive. Lyrics for acoustic guitar and electric guitar. Tablatures and chords are parodies/interpretations of the original songs. You may use it for private study, scholarship, research or language learning purposes only