>
 >
Here I Stand 2

Here I Stand 2 Guitar Tabs

Madina Lake - Here I Stand 2 chords, tabs, tablatures, lyrics

Guitar lessons | Add/correct | Request | Top 50 tabs Artists:  A B C D E F G H I J K L M N O P Q R S T U V W X Y Z 0-9

Here I Stand 2 Guitar Tabs – Madina Lake

CD, Sheet music, Poster

Do you like Here I Stand 2? Share with your friends now
Bass TabsBass Tabs v2Bass Tabs v3ChordsDrum TabsTabsTabs v2Tabs v3Ukulele
Madina Lake - Here I Stand ('The Disappearance Of Adalia' EP Version)



This is a new song from the band Madina Lake (Formerly The Blank Theory and Reforma) and 
fun to play, so here ya go!


NOTES: The lyrics appear above each measure to signify where in the song it is, not below.
The only time I tabbed a second guitar is when the riffs are different. So if two 
play the same riff at one time, I can't tell. :)


Tuning: Drop C (C, G, C, F, A, D) Low to high


Legend:

~ = Let Ring

h = Hammer-on

p = Pull-off

. = Palm Mute

* = Pay attention to this, there's a note about it a couple measures underneath.


Intro (After piano):

D|------------------------|
A|------------------------|
F|------------------------|
C|------------------------| x4
G|-----8-8---7-8-10-8-8-8-|
C|-0-0-----0--------------|


Verse:
"Hands shake..."
D|-----------------------|    D|-----------------------|    D|--------------------------------|
A|-----------------------|    A|-----------------------|    A|--------------------------------|
F|-----------------------|    F|-----------------------|    F|-------------------9h10p9-------|
C|-----------------------| x2 C|-----------------------|    C|--------------------------10h12-|
G|-----8-8---7-8-10-8----|    G|-----8-8---7-8-10-8----|    G|-----8-8---7-8------------------|
C|-0-0-----0-----------0-|    C|-8-8-----8-----------8-|    C|-7-7-----7------7---------------|
   . .     .           .         . .     .           .         . .     .      .

D|-----------------------|    D|-----------------------|    D|-----------------------------|
A|-----------------------|    A|-----------------------|    A|-----------------------------|
F|-----------------------|    F|-----------------------|    F|-------------------10-10-----|
C|-----------------------| x2 C|-----------------------|    C|-------------------8--8--8-8-|
G|-----8-8---7-8-10-8----|    G|-----8-8---7-8-10-8----|    G|-----8-8---7-8-----------8-8-|
C|-0-0-----0-----------0-|    C|-8-8-----8-----------8-|    C|-7-7-----7------7------------|
   . .     .           .         . .     .           .         . .     .      .


Chorus (Guitar One):
"Here I stand..."
D|----------------------------------------|
A|----------------------------------------|
F|----------------------------------------|
C|-3~----------5~----------0~----------0~-|
G|-3~----------5~----------0~----------0~-|
C|-3~----------5~----------0~----------0~-|

D|----------------------------------------------|
A|----------------------------------------------|
F|----------------------------------------------|
C|-3~----------5~----------8~----------10~---11-|
G|-3~----------5~----------8~----------10~---11-|
C|-3~----------5~----------8~----------10~---11-|


Chorus (Guitar Two):
"Here I stand..."
D|---8-------|    |--------12------13-8---------|
A|-----11-10-|    |-----11--------------11-10---|
F|-10--------|    |--10---------10--------------|
C|-----------| x6 |-----------------------------|
G|-----------|    |-----------------------------|
C|-----------|    |-----------------------------|


Intro riff:
D|------------------------|
A|------------------------|
F|------------------------|
C|------------------------| x4
G|-----8-8---7-8-10-8-8-8-|
C|-0-0-----0--------------|


Verse (Guitar One):
"So I'll start..."                                                               *
D|-----------------------|    D|-----------------------|    D|--------------------------------|
A|-----------------------|    A|-----------------------|    A|--------------------------------|
F|-----------------------|    F|-----------------------|    F|-------------------9h10p9-------|
C|-----------------------| x2 C|-----------------------|    C|--------------------------10h12-|
G|-----8-8---7-8-10-8----|    G|-----8-8---7-8-10-8----|    G|-----8-8---7-8------------------|
C|-0-0-----0-----------0-|    C|-8-8-----8-----------8-|    C|-7-7-----7------7---------------|
   . .     .           .         . .     .           .         . .     .      .

D|-----------------------|    D|-----------------------|    D|-----------------------------|
A|-----------------------|    A|-----------------------|    A|-----------------------------|
F|-----------------------|    F|-----------------------|    F|-------------------10-10-----|
C|-----------------------| x2 C|-----------------------|    C|-------------------8--8--8-8-|
G|-----8-8---7-8-10-8----|    G|-----8-8---7-8-10-8----|    G|-----8-8---7-8-----------8-8-|
C|-0-0-----0-----------0-|    C|-8-8-----8-----------8-|    C|-7-7-----7------7------------|
   . .     .           .         . .     .           .         . .     .      .


Guitar Two harmonizes at the * with this:

D|-------------|
A|-8h10p8------|
F|--------9h10-|
C|-------------|
G|-------------|
C|-------------|


Chorus (Guitar One):
"Here I stand..."
D|----------------------------------------|
A|----------------------------------------|
F|----------------------------------------|
C|-3~----------5~----------0~----------0~-|
G|-3~----------5~----------0~----------0~-|
C|-3~----------5~----------0~----------0~-|

D|----------------------------------------------|
A|----------------------------------------------|
F|----------------------------------------------|
C|-3~----------5~----------8~----------10~---11-|
G|-3~----------5~----------8~----------10~---11-|
C|-3~----------5~----------8~----------10~---11-|


Chorus (Guitar Two):
"Here I stand..."
D|---8-------|    |--------12------13-8---------|
A|-----11-10-|    |-----11--------------11-10---|
F|-10--------|    |--10---------10--------------|
C|-----------| x6 |-----------------------------|
G|-----------|    |-----------------------------|
C|-----------|    |-----------------------------|


Bridge:
"Where do we go..."
D|------------------------------|
A|------------------------------|
F|---------------------------10-|
C|-0-0---0-0----0-0---0-0--0-8--| X2
G|-0-0---0-0----0-0---0-0--0-8--|
C|-0-0---0-0----0-0---0-0--0----|
   . .   . .    . .   . .  .


"Inside I start to fall apart..."
D|----------------------------------------------------------------|
A|----------------------------------------------------------------|
F|----------------------------------------------------------------|
C|-0-0-0-0-0-0-0-0--10-10-10-10-10-10-10-10--8-8-8-8-8-8-8-8--9-9-|
G|-0-0-0-0-0-0-0-0--10-10-10-10-10-10-10-10--8-8-8-8-8-8-8-8--9-9-|
C|-0-0-0-0-0-0-0-0--10-10-10-10-10-10-10-10--8-8-8-8-8-8-8-8--9-9-|


D|-------------------------------------------------------------------------|
A|-------------------------------------------------------------------------|
F|----------------------------------------------------------------10-10-10-|
C|-0-0-0-0-0-0-0-0--10-10-10-10-10-10-10-10--8-8-8-8-8-8-8-8--9-9-8--8--8--|
G|-0-0-0-0-0-0-0-0--10-10-10-10-10-10-10-10--8-8-8-8-8-8-8-8--9-9-8--8--8--|
C|-0-0-0-0-0-0-0-0--10-10-10-10-10-10-10-10--8-8-8-8-8-8-8-8--9-9----------|


"I guess I'll bleed in silence..."
D|---------------------------------------------------------------------|
A|---------------------------------------------------------------------|
F|--------------------------------------------------------10-10-10-----|
C|-0-0--0-0----0--10-10--10-10----10-8-8--8--8--8---8-7-7-8--8--8---8~-|
G|-0-0--0-0----0--10-10--10-10----10-8-8--8--8--8---8-7-7-8--8--8---8~-|
C|-0-0--0-0----0--10-10--10-10----10-8-8--8--8--8---8-7-7-----------8~-|
               .                  .                 .

D|----------------------------|
A|----------------------------|
F|----------------------------|
C|-10-10-10-10-10-10-10-10-10-|
G|-10-10-10-10-10-10-10-10-10-|
C|-10-10-10-10-10-10-10-10-10-|
   .  .  .  .  .  .  .  .


Chorus (Guitar One):
"Here I stand..."
D|----------------------------------------|
A|----------------------------------------|
F|----------------------------------------|
C|-3~----------5~----------0~----------0~-|
G|-3~----------5~----------0~----------0~-|
C|-3~----------5~----------0~----------0~-|

D|----------------------------------------------|
A|----------------------------------------------|
F|----------------------------------------------|
C|-3~----------5~----------8~----------10~---11-|
G|-3~----------5~----------8~----------10~---11-|
C|-3~----------5~----------8~----------10~---11-|


Chorus (Guitar Two):
"Here I stand..."
D|---8-------|    |--------12------13-8---------|
A|-----11-10-|    |-----11--------------11-10---|
F|-10--------|    |--10---------10--------------|
C|-----------| x6 |-----------------------------|
G|-----------|    |-----------------------------|
C|-----------|    |-----------------------------|


Repeat Chorus.


Outro:
D|-----------|
A|-----------|
F|-----------|
C|-0~--------| Let this note ring out until end.
G|-0~--------|
C|-0~--------|


Recap:

Intro

Verse

Chorus

Intro

Verse

Chorus

Bridge

Chorus

Chorus

Outro

Rock on dudes





Comments


Popular Madina Lake tabs & chords
House Of Cards 1 Bass Tabs
Never Take Us Alive Bass Tabs
One Last Kiss Bass Tabs
Legends Chords
One Last Kiss 4 Chords
Pandora 1 Chords
Now Or Never Tabs
The Auspice Tabs
True Love Ukulele
Well Be Ok Ukulele


Song lyrics



↑ Back to top | Tablatures and chords are parodies/interpretations of the original songs. You may use it for private study, scholarship, research or language learning purposes only
© 2014 AZChords.com Contact us | Privacy policy | DMCA | Add/correct tabs | Request tabs | Top 50 tabs