» » »

Madina Lake, Here I Stand Bass tabs (ver.3)

Artists:  A B C D E F G H I J K L M N O P Q R S T U V W X Y Z # 

Here I Stand Bass tabs (ver.3)

Madina Lake Tabs
Rating:
5/5 (5 votes)
Here I Stand lessons Tabs too difficult? Try these video lessons and learn fast
                Madina lake



Intro
G|------------------------------------------------------------------------|
D|------------------------------------------------------------------------|
A|------------------------------------------------------------------------|
E|--------------------------------4-4-4-4-4-4-4-4--6-6-6-6-6-6-6----------|
B|1-1-1-1-1-1-1-1-1-1-1-1-1-1-1-1-----------------------------------------|


Verse 1
G|-----------------------------------------------|
D|-----------------------------------------------|
A|-----------------------------------------------|
E|----------------------444--4-44--333--3-33-----|
B|111--1-11--111--1-11-----------------------13/-|

G|-----------------------------------------------------------------------|
D|-----------------------------------------------------------------------|
A|----------------------------3-5h6--------------------------------------|
E|-------------------------------------4-4-4-4-4-4-6-6-5-5-5-5-5-5-5-5---|
B|-1-1-1-1-1-1-1-1-1-1-1-1-1-1-------------------------------------------|

G|-----------------|
D|-----------------|
A|-----------------|                 a a# b c c3 d d# e f f# g g#
E|4-------6--------|
B|-----------------|

Chorus
G|--------------------------------------------------------------------------|
D|--------------------------------------------------------------------------|
A|------------------------------------------------------------------1h3-----|
E|----------------1-1-1-1-1-1-1-4h5---------------6h8-----------------------|
B|4-4-4-4-4-4-4-4-------------------1-1-1-1-1-1-1-----1-1-1-1-1-1-1---------|

G|------------------------------------------------------------------------|
D|------------------------------------------------------------------------|
A|------------------------------------------------------------------------|
E|----------------1-1-1-1-1-1-1-1-4-4-4-4-4-4-4-4-6-6-6-6-7-7-7-7---------|
B|4-4-4-4-4-4-4-4---------------------------------------------------------|

Intro being played again 
G|------------------------------------------------------------------------|
D|------------------------------------------------------------------------|
A|------------------------------------------------------------------------|
E|--------------------------------4-4-4-4-4-4-4-4--6-6-6-6-6-6-6----------|
B|1-1-1-1-1-1-1-1-1-1-1-1-1-1-1-1-----------------------------------------|

Verse 2
G|-----------------------------------------------|
D|-----------------------------------------------|
A|-----------------------------------------------|
E|----------------------444--4-44--333--3-33-----|
B|111--1-11--111--1-11-----------------------13/-|

G|-----------------------------------------------------------------------|
D|-----------------------------------------------------------------------|
A|----------------------------3-5h6--------------------------------------|
E|-------------------------------------4-4-4-4-4-4-6-6-5-5-5-5-5-5-5-5---|
B|1-1-1-1-1-1-1-1-1-1-1-1-1-1--------------------------------------------|

G|-----------------|
D|-----------------|
A|-----------------|                 
E|4-------6--------|
B|-----------------|

Chorus
G|--------------------------------------------------------------------------|
D|--------------------------------------------------------------------------|
A|------------------------------------------------------------------1h3-----|
E|----------------1-1-1-1-1-1-1-4h5---------------6h8-----------------------|
B|4-4-4-4-4-4-4-4-------------------1-1-1-1-1-1-1-----1-1-1-1-1-1-1---------|

G|------------------------------------------------------------------------|
D|------------------------------------------------------------------------|
A|------------------------------------------------------------------------|
E|----------------1-1-1-1-1-1-1-1-4-4-4-4-4-4-4-4-6-6-6-6-7-7-7-7---------|
B|4-4-4-4-4-4-4-4---------------------------------------------------------|

Break
G|-------------------------------------------------|
D|-------------------------------------------------|
A|-------------------------------------------------|
E|---------------------6~-----------------------6~-|
B|111--1-11--111--1-11-----111--1-11--111--1-11----|

G|------------------------------------------------------------------------|
D|------------------------------------------------------------------------|
A|------------------------------------------------------------------------|
E|----------------6-6-6-6-6-6-6-6-4-4-4-4-4-4-4-4-3-3-3-3-3-3-3-3---------|
B|1-1-1-1-1-1-1-1---------------------------------------------------------|

G|----------------------------------------------------------------------|
D|----------------------------------------------------------------------|
a|--------------------------------------------------------/6-5----------|
E|----------------6-6-6-6-6-6-6-6-4-4-4-4-4-4-4-4-3-3-3-3---------------|
B|1-1-1-1-1-1-1-1-------------------------------------------------------|

G|----------------------------------------------|
D|----------------------------------------------|
A|----------------------------------------------|
E|-------------------6-6-6-6\4-4--444-4\33--333-|
B|11--111--1/-11-11-----------------------------|

F|-------------------------------------------|
C|-------------------------------------------|
G|-------------------------------------------|
C|4-4-4-4-4-4-4-4-6-6-6-6-6-6-6-6-6----------|
B|-------------------------------------------|

Chorus x2
G|--------------------------------------------------------------------------|
D|--------------------------------------------------------------------------|
A|------------------------------------------------------------------1h3-----|
E|----------------1-1-1-1-1-1-1-4h5---------------6h8-----------------------|
B|4-4-4-4-4-4-4-4-------------------1-1-1-1-1-1-1-----1-1-1-1-1-1-1---------|

G|------------------------------------------------------------------------|
D|------------------------------------------------------------------------|
A|------------------------------------------------------------------------|
E|----------------1-1-1-1-1-1-1-1-4-4-4-4-4-4-4-4-6-6-6-6-7-7-7-7---------|
B|4-4-4-4-4-4-4-4--------------------------------------------------1-------|
            

comments powered by Disqus
↑ Back to top | Madina Lake Bass for Here I Stand. Lyrics for acoustic guitar and electric guitar. Tablatures and chords are parodies/interpretations of the original songs. You may use it for private study, scholarship, research or language learning purposes only