>
 >
Here I Stand 1

Here I Stand 1 Guitar Tabs

Madina Lake - Here I Stand 1 chords, tabs, tablatures, lyrics

Guitar lessons | Add/correct | Request | Top 50 tabs Artists:  A B C D E F G H I J K L M N O P Q R S T U V W X Y Z 0-9

Here I Stand 1 Guitar Tabs – Madina Lake

CD, Sheet music, Poster

Do you like Here I Stand 1? Share with your friends now
Bass TabsBass Tabs v2Bass Tabs v3ChordsDrum TabsTabsTabs v2Tabs v3Ukulele
----------------------------------------------------------------------------
Band: Madina Lake
----------------------------------------------------------------------------

Tuning: Drop C. (Low to High - CGCFAd) Basically Drop D but a whole
        step (two frets) down.

So I put up a video of me playing this song, and lots of people wanted me to put up a
so here it is! Sorry it's later than I said it would be... Hope this helps...


For noting down palm muting, there will be a 7th row under each score designated for
you palm mute or not.. If there is a hyphen (-) then all the notes on that note (above the
are palm muted. The row will be empty if you do not need to palm mute. If you don't 
I'm sorreh =(

Intro: (After the piano)
d|---------------------------------------------------|
A|---------------------------------------------------|
F|------10----10--------9----10-----12----10-10-10---|
C|-------x-----x--------x-----x------x----10-10-10---|
G|-0--0--8--0--8--0--0--7--0--8--0--10--0--8--8--8---|
C|-0--0-----0-----0--0-----0-----0------0------------|

d|---------------------------------------------------|
A|---------------------------------------------------|
F|------10----10--------9----10-----12----10-10-10---|
C|-------x-----x--------x-----x------x----10-10-10---|
G|-0--0--8--0--8--0--0--7--0--8--0--10--0--8--8--8---|
C|-0--0-----0-----0--0-----0-----0------0------------|

d|---------------------------------------------------|
A|---------------------------------------------------|
F|------10----10--------9----10-----12----10-10-10---|
C|-------x-----x--------x-----x------x----10-10-10---|
G|-8--8--8--0--8--0--0--7--0--8--0--10--0--8--8--8---|
C|-8--8-----0-----0--0-----0-----0------0------------|

d|---------------------------------------------------|
A|---------------------------------------------------|
F|--------10----10--------9-----5-------5--5--5--5---|
C|---------x-----x--------x-----x-------5--5--5--5---|
G|-10--10--8--0--8--0--0--7--0--3----0--3--3--3--3---|
C|-10--10-----0-----0--0-----0-------0---------------|
PM                                   -
"My hands-"

Verse: (This bit is quite tricky. The best way to get this right is to get the strum
right so that all the upper stringed notes are played normally whereas the lower stringed
are palm muted.)

d|---------------------------------------------------|
A|---------------------------------------10----------|
F|------10----10--------9----10----12-----9----------|
C|------10----10-------10----10----10----10----------|
G|-x--x-----x-----x--x-----x-----x-----x-----x--x----|
C|-0--0-----0-----0--0-----0-----0-----0-----0--0----|
PM -  -     -     -  -     -     -     -     -  -
"Shaaakkee. 'Cause to-"

d|---------------------------------------------------|
A|---------------------------------------------------|
F|------10----10--------9----10----12----10----------|
C|------10----10-------10----10----10----10----------|
G|-x--x-----x-----x--x-----x-----x-----x-----x--x----|
C|-0--0-----0-----0--0-----0-----0-----0-----0--0----|
PM -  -     -     -  -     -     -     -     -  -
"Daayyyyy. I kn-"

d|---------------------------------------------------|
A|---------------------------------------------------|
F|------10----10--------9----10----12----10----------|
C|------10----10-------10----10----10----10----------|
G|-8--8-----8-----8--8-----8-----8-----8-----8--8----|
C|-8--8-----8-----8--8-----8-----8-----8-----8--8----|
PM -  -     -     -  -     -     -     -     -  -
"knoowwwwww, you're gonna-"

d|---------------------------------------------------|
A|---------------------------------------------------|
F|------10----10--------9-----9--------9h10p9----9\--|
C|------10----10-------10----10---------------10-----|
G|-7--7-----7-----7--7-----7-----7--7----------------|
C|-7--7-----7-----7--7-----7-----7--7----------------|
PM -  -     -     -  -     -     -  -
"breeaak my heart and.."

For the 2nd time through, the guitar seems to sound heavier. To get
that sound I simply loosened up the palm mute a little so that
more sound could get through... I dunno, lol..
d|---------------------------------------------------|
A|---------------------------------------10----------|
F|------10----10--------9----10----12-----9----------|
C|------10----10-------10----10----10----10----------|
G|-0--0-----0-----0--0-----0-----0-----0-----0--0----|
C|-0--0-----0-----0--0-----0-----0-----0-----0--0----|
PM -  -     -     -  -     -     -     -     -  -
"My life without you in it.."

d|---------------------------------------------------|
A|---------------------------------------------------|
F|------10----10--------9----10----12----10----------|
C|------10----10-------10----10----10----10----------|
G|-0--0-----0-----0--0-----0-----0-----0-----0--0----|
C|-0--0-----0-----0--0-----0-----0-----0-----0--0----|
PM -  -     -     -  -     -     -     -     -  -
"Is a life that's not worth livin'"

d|---------------------------------------------------|
A|---------------------------------------------------|
F|------10----10--------9----10----12----10----------|
C|------10----10-------10----10----10----10----------|
G|-8--8-----8-----8--8-----8-----8-----8-----8--8----|
C|-8--8-----8-----8--8-----8-----8-----8-----8--8----|
PM -  -     -     -  -     -     -     -     -  -
"I'll be strong, but I wish I was-"

d|---------------------------------------------------|
A|---------------------------------------------------|
F|------10----10--------9-----9--------9--9--9--9----|
C|------10----10-------10----10-------10-10-10-10----|
G|-7--7-----7-----7--7-----7-----7--7--7--7--7--7----|
C|-7--7-----7-----7--7-----7-----7--7--7--7--7--7----|
PM -  -     -     -  -     -     -  -
"Someone else. Anyone but-"

Pre-Chorus: No guitar here, although the bass plays two whole notes of
C|-8~---10~-\\-|
"Me. Tonight"

Chorus: I suck at tabbing strumming patterns, sorry =/ If you watch my
video, I do some variations at the chorus... I didn't tab them because
that's just me doing my own thing...
d|---------------------------------------------------|
A|---------------------------------------------------|
F|---------------------------------------------------|
C|-3--3---3--3--3---3--3--3---3--3--3---3------------|
G|-3--3---3--3--3---3--3--3---3--3--3---3------------|
C|-3--3---3--3--3---3--3--3---3--3--3---3------------|
"Stand. All Al-"

d|---------------------------------------------------|
A|---------------------------------------------------|
F|---------------------------------------------------|
C|-5--5---5--5--5---5--5--5---5--5--5---5------------|
G|-5--5---5--5--5---5--5--5---5--5--5---5------------|
C|-5--5---5--5--5---5--5--5---5--5--5---5------------|
"-lone. To-"

d|---------------------------------------------------|
A|---------------------------------------------------|
F|---------------------------------------------------|
C|-0--0---0--0--0---0--0--0---0--0--0---0------------|
G|-0--0---0--0--0---0--0--0---0--0--0---0------------|
C|-0--0---0--0--0---0--0--0---0--0--0---0------------|
"-Niightt."

d|---------------------------------------------------|
A|---------------------------------------------------|
F|---------------------------------------------------|
C|-0--0---0--0--0---0--0--0---0--0--0---0------------|
G|-0--0---0--0--0---0--0--0---0--0--0---0------------|
C|-0--0---0--0--0---0--0--0---0--0--0---0------------|
"And I wish I was strong enough to-"

d|---------------------------------------------------|
A|---------------------------------------------------|
F|---------------------------------------------------|
C|-3--3---3--3--3---3--3--3---3--3--3---3------------|
G|-3--3---3--3--3---3--3--3---3--3--3---3------------|
C|-3--3---3--3--3---3--3--3---3--3--3---3------------|
"Breathe.. Without y-"

d|---------------------------------------------------|
A|---------------------------------------------------|
F|---------------------------------------------------|
C|-5--5---5--5--5---5--5--5---5--5--5---5------------|
G|-5--5---5--5--5---5--5--5---5--5--5---5------------|
C|-5--5---5--5--5---5--5--5---5--5--5---5------------|
"Yoouu.. In myy-"

d|---------------------------------------------------|
A|---------------------------------------------------|
F|---------------------------------------------------|
C|-8--8---8--8--8---8--8--8---8--8--8---8------------|
G|-8--8---8--8--8---8--8--8---8--8--8---8------------|
C|-8--8---8--8--8---8--8--8---8--8--8---8------------|
"Life."

d|---------------------------------------------------|
A|---------------------------------------------------|
F|---------------------------------------------------|
C|-10-10-10-10-10-10-10-10-11-11-11-11-11-11-11-11---|
G|-10-10-10-10-10-10-10-10-11-11-11-11-11-11-11-11---|
C|-10-10-10-10-10-10-10-10-11-11-11-11-11-11-11-11---|
"And I wish I was anyone but me.."

Intro: Yeah, play the intro again...
d|---------------------------------------------------|
A|---------------------------------------------------|
F|------10----10--------9----10-----12----10-10-10---|
C|-------x-----x--------x-----x------x----10-10-10---|
G|-0--0--8--0--8--0--0--7--0--8--0--10--0--8--8--8---|
C|-0--0-----0-----0--0-----0-----0------0------------|

d|---------------------------------------------------|
A|---------------------------------------------------|
F|------10----10--------9----10-----12----10-10-10---|
C|-------x-----x--------x-----x------x----10-10-10---|
G|-0--0--8--0--8--0--0--7--0--8--0--10--0--8--8--8---|
C|-0--0-----0-----0--0-----0-----0------0------------|

d|---------------------------------------------------|
A|---------------------------------------------------|
F|------10----10--------9----10-----12----10-10-10---|
C|-------x-----x--------x-----x------x----10-10-10---|
G|-8--8--8--0--8--0--0--7--0--8--0--10--0--8--8--8---|
C|-8--8-----0-----0--0-----0-----0------0------------|

d|---------------------------------------------------|
A|---------------------------------------------------|
F|--------10----10--------9-----5-------5--5--5--5---|
C|---------x-----x--------x-----x-------5--5--5--5---|
G|-10--10--8--0--8--0--0--7--0--3----0--3--3--3--3---|
C|-10--10-----0-----0--0-----0-------0---------------|
PM                                   -
"So I'll..."

Verse 2: Exactly the same as before..

d|---------------------------------------------------|
A|---------------------------------------10----------|
F|------10----10--------9----10----12-----9----------|
C|------10----10-------10----10----10----10----------|
G|-x--x-----x-----x--x-----x-----x-----x-----x--x----|
C|-0--0-----0-----0--0-----0-----0-----0-----0--0----|
PM -  -     -     -  -     -     -     -     -  -
"staaarrtt. To pre-"

d|---------------------------------------------------|
A|---------------------------------------------------|
F|------10----10--------9----10----12----10----------|
C|------10----10-------10----10----10----10----------|
G|-x--x-----x-----x--x-----x-----x-----x-----x--x----|
C|-0--0-----0-----0--0-----0-----0-----0-----0--0----|
PM -  -     -     -  -     -     -     -     -  -
"-teendd.. I'm o-"

d|---------------------------------------------------|
A|---------------------------------------------------|
F|------10----10--------9----10----12----10----------|
C|------10----10-------10----10----10----10----------|
G|-8--8-----8-----8--8-----8-----8-----8-----8--8----|
C|-8--8-----8-----8--8-----8-----8-----8-----8--8----|
PM -  -     -     -  -     -     -     -     -  -
"-kaayy. But you should kn-"

d|---------------------------------------------------|
A|---------------------------------------------------|
F|------10----10--------9-----9--------9h10p9----9\--|
C|------10----10-------10----10---------------10-----|
G|-7--7-----7-----7--7-----7-----7--7----------------|
C|-7--7-----7-----7--7-----7-----7--7----------------|
PM -  -     -     -  -     -     -  -
"Knoowww by now that.."

d|---------------------------------------------------|
A|---------------------------------------10----------|
F|------10----10--------9----10----12-----9----------|
C|------10----10-------10----10----10----10----------|
G|-0--0-----0-----0--0-----0-----0-----0-----0--0----|
C|-0--0-----0-----0--0-----0-----0-----0-----0--0----|
PM -  -     -     -  -     -     -     -     -  -
"My life is smoke and mirrors.."

d|---------------------------------------------------|
A|---------------------------------------------------|
F|------10----10--------9----10----12----10----------|
C|------10----10-------10----10----10----10----------|
G|-0--0-----0-----0--0-----0-----0-----0-----0--0----|
C|-0--0-----0-----0--0-----0-----0-----0-----0--0----|
PM -  -     -     -  -     -     -     -     -  -
"One thing is crystal clear that.."

d|---------------------------------------------------|
A|---------------------------------------------------|
F|------10----10--------9----10----12----10----------|
C|------10----10-------10----10----10----10----------|
G|-8--8-----8-----8--8-----8-----8-----8-----8--8----|
C|-8--8-----8-----8--8-----8-----8-----8-----8--8----|
PM -  -     -     -  -     -     -     -     -  -
"I'm the one.. Wishing I was-"

d|---------------------------------------------------|
A|---------------------------------------------------|
F|------10----10--------9-----9--------9--9--9--9----|
C|------10----10-------10----10-------10-10-10-10----|
G|-7--7-----7-----7--7-----7-----7--7--7--7--7--7----|
C|-7--7-----7-----7--7-----7-----7--7--7--7--7--7----|
PM -  -     -     -  -     -     -  -
"Someone else... Anyone but-"

Pre-Chorus: No guitar here again, although the bass plays two whole
notes of
C|-8~---10~-\\-|
"Me. Tonight"

Chorus: Same as before!
d|---------------------------------------------------|
A|---------------------------------------------------|
F|---------------------------------------------------|
C|-3--3---3--3--3---3--3--3---3--3--3---3------------|
G|-3--3---3--3--3---3--3--3---3--3--3---3------------|
C|-3--3---3--3--3---3--3--3---3--3--3---3------------|
"Staaanndd. All al-"

d|---------------------------------------------------|
A|---------------------------------------------------|
F|---------------------------------------------------|
C|-5--5---5--5--5---5--5--5---5--5--5---5------------|
G|-5--5---5--5--5---5--5--5---5--5--5---5------------|
C|-5--5---5--5--5---5--5--5---5--5--5---5------------|
"-loonneee. To-"

d|---------------------------------------------------|
A|---------------------------------------------------|
F|---------------------------------------------------|
C|-0--0---0--0--0---0--0--0---0--0--0---0------------|
G|-0--0---0--0--0---0--0--0---0--0--0---0------------|
C|-0--0---0--0--0---0--0--0---0--0--0---0------------|
"-Niightttt."

d|---------------------------------------------------|
A|---------------------------------------------------|
F|---------------------------------------------------|
C|-0--0---0--0--0---0--0--0---0--0--0---0------------|
G|-0--0---0--0--0---0--0--0---0--0--0---0------------|
C|-0--0---0--0--0---0--0--0---0--0--0---0------------|
"and I wish I was strong enough to-"

d|---------------------------------------------------|
A|---------------------------------------------------|
F|---------------------------------------------------|
C|-3--3---3--3--3---3--3--3---3--3--3---3------------|
G|-3--3---3--3--3---3--3--3---3--3--3---3------------|
C|-3--3---3--3--3---3--3--3---3--3--3---3------------|
"Breathe... Without y-"

d|---------------------------------------------------|
A|---------------------------------------------------|
F|---------------------------------------------------|
C|-5--5---5--5--5---5--5--5---5--5--5---5------------|
G|-5--5---5--5--5---5--5--5---5--5--5---5------------|
C|-5--5---5--5--5---5--5--5---5--5--5---5------------|
"You.. In my.."

d|---------------------------------------------------|
A|---------------------------------------------------|
F|---------------------------------------------------|
C|-8--8---8--8--8---8--8--8---8--8--8---8------------|
G|-8--8---8--8--8---8--8--8---8--8--8---8------------|
C|-8--8---8--8--8---8--8--8---8--8--8---8------------|
"Liifeee..."

d|---------------------------------------------------|
A|---------------------------------------------------|
F|---------------------------------------------------|
C|-10-10-10-10-10-10-10-10-11-11-11-11-11-11-11-11---|
G|-10-10-10-10-10-10-10-10-11-11-11-11-11-11-11-11---|
C|-10-10-10-10-10-10-10-10-11-11-11-11-11-11-11-11---|
"But I wish I was anyone but-"

Bridge: Listen to the song for timings, I really suck at tabbing
them sorry.
d|---------------------------------------------------|
A|---------------------------------------------------|
F|------------------------------------10~\-----------|
C|-0-0--0--0---------0-0---0--0--------8~\-----------|
G|-0-0--0--0---------0-0---0--0---0-0--8~\-----------|
C|-0-0--0--0---------0-0---0--0---0-0--8~\-----------|
PM - -  -  -         - -   -  -
"Me...  Where do. We go?"

d|---------------------------------------------------|
A|---------------------------------------------------|
F|------------------------------------10~\-----------|
C|-0-0--0--0---------0-0---0--0--------8~\-----------|
G|-0-0--0--0---------0-0---0--0---0-0--8~\-----------|
C|-0-0--0--0---------0-0---0--0---0-0--8~\-----------|
PM - -  -  -         - -   -  -
" Where do. We go?"

d|---------------------------------------------------|
A|---------------------------------------------------|
F|---------------------------------------------------|
C|-0--0--0--0--0--0--0--0-10-10-10-10-10-10-10-10----|
G|-0--0--0--0--0--0--0--0-10-10-10-10-10-10-10-10----|
C|-0--0--0--0--0--0--0--0-10-10-10-10-10-10-10-10----|
"Inside I start to fall aaaa-"

d|---------------------------------------------------|
A|---------------------------------------------------|
F|---------------------------------------------------|
C|-8--8--8--8--8--8--8--8--8\7--7--7--7--7--7--7-----|
G|-8--8--8--8--8--8--8--8--8\7--7--7--7--7--7--7-----|
C|-8--8--8--8--8--8--8--8--8\7--7--7--7--7--7--7-----|
"-paart."

d|---------------------------------------------------|
A|---------------------------------------------------|
F|---------------------------------------------------|
C|-0--0--0--0--0--0--0--0-10-10-10-10-10-10-10-10----|
G|-0--0--0--0--0--0--0--0-10-10-10-10-10-10-10-10----|
C|-0--0--0--0--0--0--0--0-10-10-10-10-10-10-10-10----|
"And I'll pretend I'm holdiiinn-"

d|---------------------------------------------------|
A|---------------------------------------------------|
F|-----------------------------------10~\------------|
C|-8--8--8--8--8--8--8--8--8\7--7--7-10~\------------|
G|-8--8--8--8--8--8--8--8--8\7--7--7--8~\------------|
C|-8--8--8--8--8--8--8--8--8\7--7--7-----------------|
"On."

d|---------------------------------------------------|
A|---------------------------------------------------|
F|---------------------------------------------------|
C|-0-0---0--0---0-10-10---10--10---10----------------|
G|-0-0---0--0---0-10-10---10--10---10----------------|
C|-0-0---0--0---0-10-10---10--10---10----------------|
PM              -                  --
"But I guess I'll bleed in sileencee.."

d|---------------------------------------------------|
A|---------------------------------------------------|
F|---------------------------------------------------|
C|-8-8---8--8---8-7--7---7--7--7---7-----------------|
G|-8-8---8--8---8-8--8---8--8--8---8-----------------|
C|-8-8---8--8---8-7--7---7--7--7---7-----------------|
PM              -
"In Silence!"

d|---------------------------------------------------|
A|---------------------------------------------------|
F|---------------------------------------------------|
C|-8--8---8--8--8---8--8--8---8--8--8---8/-----------|
G|-8--8---8--8--8---8--8--8---8--8--8---8/-----------|
C|-8--8---8--8--8---8--8--8---8--8--8---8/-----------|
"I guess I'll bleed in si-"

Here, gradually release the palm mute.
d|---------------------------------------------------|
A|---------------------------------------------------|
F|---------------------------------------------------|
C|-10-10-10-10-10-10-10-10-10.-----------------------|
G|-10-10-10-10-10-10-10-10-10.-----------------------|
C|-10-10-10-10-10-10-10-10-10.-----------------------|
PM -- -- -- -- -- -- --

Chorus: Same as before!
d|---------------------------------------------------|
A|---------------------------------------------------|
F|---------------------------------------------------|
C|-3--3---3--3--3---3--3--3---3--3--3---3------------|
G|-3--3---3--3--3---3--3--3---3--3--3---3------------|
C|-3--3---3--3--3---3--3--3---3--3--3---3------------|
"Staaanndd. All al-"

d|---------------------------------------------------|
A|---------------------------------------------------|
F|---------------------------------------------------|
C|-5--5---5--5--5---5--5--5---5--5--5---5------------|
G|-5--5---5--5--5---5--5--5---5--5--5---5------------|
C|-5--5---5--5--5---5--5--5---5--5--5---5------------|
"-loonneee. To-"

d|---------------------------------------------------|
A|---------------------------------------------------|
F|---------------------------------------------------|
C|-0--0---0--0--0---0--0--0---0--0--0---0------------|
G|-0--0---0--0--0---0--0--0---0--0--0---0------------|
C|-0--0---0--0--0---0--0--0---0--0--0---0------------|
"-Niightttt."

d|---------------------------------------------------|
A|---------------------------------------------------|
F|---------------------------------------------------|
C|-0--0---0--0--0---0--0--0---0--0--0---0------------|
G|-0--0---0--0--0---0--0--0---0--0--0---0------------|
C|-0--0---0--0--0---0--0--0---0--0--0---0------------|
"and I wish I was strong enough to-"

d|---------------------------------------------------|
A|---------------------------------------------------|
F|---------------------------------------------------|
C|-3--3---3--3--3---3--3--3---3--3--3---3------------|
G|-3--3---3--3--3---3--3--3---3--3--3---3------------|
C|-3--3---3--3--3---3--3--3---3--3--3---3------------|
"Breathe... Without y-"

d|---------------------------------------------------|
A|---------------------------------------------------|
F|---------------------------------------------------|
C|-5--5---5--5--5---5--5--5---5--5--5---5------------|
G|-5--5---5--5--5---5--5--5---5--5--5---5------------|
C|-5--5---5--5--5---5--5--5---5--5--5---5------------|
"You.. In my.."

d|---------------------------------------------------|
A|---------------------------------------------------|
F|---------------------------------------------------|
C|-8--8---8--8--8---8--8--8---8--8--8---8------------|
G|-8--8---8--8--8---8--8--8---8--8--8---8------------|
C|-8--8---8--8--8---8--8--8---8--8--8---8------------|
"Liifeee..."

d|---------------------------------------------------|
A|---------------------------------------------------|
F|---------------------------------------------------|
C|-10-10-10-10-10-10-10-10-11-11-11-11-11-11-11-11---|
G|-10-10-10-10-10-10-10-10-11-11-11-11-11-11-11-11---|
C|-10-10-10-10-10-10-10-10-11-11-11-11-11-11-11-11---|
"And I wish I was anyone but-"

Final Chorus: Last time!
d|---------------------------------------------------|
A|---------------------------------------------------|
F|---------------------------------------------------|
C|-3--3---3--3--3---3--3--3---3--3--3---3------------|
G|-3--3---3--3--3---3--3--3---3--3--3---3------------|
C|-3--3---3--3--3---3--3--3---3--3--3---3------------|
"Meee... All al-"

d|---------------------------------------------------|
A|---------------------------------------------------|
F|---------------------------------------------------|
C|-5--5---5--5--5---5--5--5---5--5--5---5------------|
G|-5--5---5--5--5---5--5--5---5--5--5---5------------|
C|-5--5---5--5--5---5--5--5---5--5--5---5------------|
"-loonneee. To-"

d|---------------------------------------------------|
A|---------------------------------------------------|
F|---------------------------------------------------|
C|-0--0---0--0--0---0--0--0---0--0--0---0------------|
G|-0--0---0--0--0---0--0--0---0--0--0---0------------|
C|-0--0---0--0--0---0--0--0---0--0--0---0------------|
"-Niightttt."

d|---------------------------------------------------|
A|---------------------------------------------------|
F|---------------------------------------------------|
C|-0--0---0--0--0---0--0--0---0--0--0---0------------|
G|-0--0---0--0--0---0--0--0---0--0--0---0------------|
C|-0--0---0--0--0---0--0--0---0--0--0---0------------|
"and I wish I was strong enough to-"

d|---------------------------------------------------|
A|---------------------------------------------------|
F|---------------------------------------------------|
C|-3--3---3--3--3---3--3--3---3--3--3---3------------|
G|-3--3---3--3--3---3--3--3---3--3--3---3------------|
C|-3--3---3--3--3---3--3--3---3--3--3---3------------|
"Breathe... Without y-"

d|---------------------------------------------------|
A|---------------------------------------------------|
F|---------------------------------------------------|
C|-5--5---5--5--5---5--5--5---5--5--5---5------------|
G|-5--5---5--5--5---5--5--5---5--5--5---5------------|
C|-5--5---5--5--5---5--5--5---5--5--5---5------------|
"You.. In my.."

d|---------------------------------------------------|
A|---------------------------------------------------|
F|---------------------------------------------------|
C|-8--8---8--8--8---8--8--8---8--8--8---8------------|
G|-8--8---8--8--8---8--8--8---8--8--8---8------------|
C|-8--8---8--8--8---8--8--8---8--8--8---8------------|
"Liifeee..."

d|---------------------------------------------------|
A|---------------------------------------------------|
F|---------------------------------------------------|
C|-10-10-10-10-10-10-10-10-11-11-11-11-11-11-11-11---|
G|-10-10-10-10-10-10-10-10-11-11-11-11-11-11-11-11---|
C|-10-10-10-10-10-10-10-10-11-11-11-11-11-11-11-11---|
"And I wish I was anyone but-"

d|---------------------------------------------------|
A|---------------------------------------------------|
F|---------------------------------------------------|
C|-0~------------------------------------------------|
G|-0~--Let ring until End.---------------------------|
C|-0~------------------------------------------------|
"Me."

There ya have it... Sorry I didn't include the backing guitar during the Chorus, I never
that out. =/

Ratings and Comments greatly appreciated, be them good or bad. Thanks =)



Also, the Stars tab I made has a video at the above URL too. Check it out
if you're interested =)


Thanks again =)





Comments


Popular Madina Lake tabs & chords
A Beautiful Life Bass Tabs
Pandora 2 Bass Tabs
Adalia 3 Chords
Now Or Never Chords
One Last Kiss 4 Chords
Through The Pain Chords
Angel Ukulele
Now Or Never Ukulele
Statistics Ukulele
Well Be Ok Ukulele


Song lyrics



↑ Back to top | Tablatures and chords are parodies/interpretations of the original songs. You may use it for private study, scholarship, research or language learning purposes only
© 2014 AZChords.com Contact us | Privacy policy | DMCA | Add/correct tabs | Request tabs | Top 50 tabs