» » »

Here I Stand Bass tabs (ver.2)

Artists:  A B C D E F G H I J K L M N O P Q R S T U V W X Y Z # 

Here I Stand Bass tabs (ver.2)

Madina Lake
Rating:
1/5 (1 vote)

Hard to play? Try these video lessons and learn fast.
                Intro
F|------------------------------------------------------------------------|
C|------------------------------------------------------------------------|
G|------------------------------------------------------------------------|
C|0-0-0-0-0-0-0-0-0-0-0-0-0-0-0-0-8-8-8-8-8-8-8-8-10-10-10-10-10-10-10-10-|

Verse 1
F|-----------------------------------------------|
C|-----------------------------------------------|
G|-----------------------------------------------|
C|000--0-00--000--0-00--888--8-88--777--7-77-12\-|

F|-----------------------------------------------------------------------|
C|-----------------------------------------------------------------------|
G|-----------------------------------------------------------------------|
C|0-0-0-0-0-0-0-0-0-0-0-0-0-0-12-14h15-8-8-8-8-8-8-10-10-7-7-7-7-7-7-7-7-|

F|-----------------|
C|-----------------|
G|-----------------|
C|8-------10-------|

Chorus
F|--------------------------------------------------------------------------|
C|--------------------------------------------------------------------------|
G|--------------------------------------------------------------------------|
C|3-3-3-3-3-3-3-3-5-5-5-5-5-5-5-7h8-0-0-0-0-0-0-0-10h12-0-0-0-0-0-0-0-10h12-|

F|------------------------------------------------------------------------|
C|------------------------------------------------------------------------|
G|------------------------------------------------------------------------|
C|3-3-3-3-3-3-3-3-5-5-5-5-5-5-5-5-8-8-8-8-8-8-8-8-10-10-10-10-11-11-11-11-|

Intro played again after chorus

Verse 2
F|-----------------------------------------------|
C|-----------------------------------------------|
G|-----------------------------------------------|
C|000--0-00--000--0-00--888--8-88--777--7-77-12\-|

F|-----------------------------------------------------------------------|
C|-----------------------------------------------------------------------|
G|-----------------------------------------------------------------------|
C|0-0-0-0-0-0-0-0-0-0-0-0-0-0-12-14h15-8-8-8-8-8-8-10-10-7-7-7-7-7-7-7-7-|

F|-----------------|
C|-----------------|
G|-----------------|
C|8-------10-------|

Chorus
F|--------------------------------------------------------------------------|
C|--------------------------------------------------------------------------|
G|--------------------------------------------------------------------------|
C|3-3-3-3-3-3-3-3-5-5-5-5-5-5-5-7h8-0-0-0-0-0-0-0-10h12-0-0-0-0-0-0-0-10h12-|

F|------------------------------------------------------------------------|
C|------------------------------------------------------------------------|
G|------------------------------------------------------------------------|
C|3-3-3-3-3-3-3-3-5-5-5-5-5-5-5-5-8-8-8-8-8-8-8-8-10-10-10-10-11-11-11-11-|

Break
F|-------------------------------------------------|
C|-------------------------------------------------|
G|-------------------------------------------------|
C|000--0-00--000--0-00-8~--000--0-00--000--0-00-8~-|

F|------------------------------------------------------------------------|
C|------------------------------------------------------------------------|
G|------------------------------------------------------------------------|
C|0-0-0-0-0-0-0-0-10-10-10-10-10-10-10-10-8-8-8-8-8-8-8-8-7-7-7-7-7-7-7-7-|

F|----------------------------------------------------------------------|
C|----------------------------------------------------------------------|
G|----------------------------------------------------------------------|
C|0-0-0-0-0-0-0-0-10-10-10-10-10-10-10-10-8-8-8-8-8-8-8-8-7-7-7-7/15-14-|

F|---------------------------------------------|
C|---------------------------------------------|
G|---------------------------------------------|
C|00--000--0/1010--101010-10\88--888-8\77--777-|

F|-------------------------------------------|
C|-------------------------------------------|
G|-------------------------------------------|
C|8-8-8-8-8-8-8-8-10-10-10-10-10-10-10-10-10-|

Chorus x2
F|--------------------------------------------------------------------------|
C|--------------------------------------------------------------------------|
G|--------------------------------------------------------------------------|
C|3-3-3-3-3-3-3-3-5-5-5-5-5-5-5-7h8-0-0-0-0-0-0-0-10h12-0-0-0-0-0-0-0-10h12-|

F|------------------------------------------------------------------------|
C|------------------------------------------------------------------------|
G|------------------------------------------------------------------------|
C|3-3-3-3-3-3-3-3-5-5-5-5-5-5-5-5-8-8-8-8-8-8-8-8-10-10-10-10-11-11-11-11-|

end on C
            
Hard to play? Try these video lessons and learn fast. | Correct




comments powered by Disqus
↑ Back to top | Tablatures and chords are parodies/interpretations of the original songs. You may use it for private study, scholarship, research or language learning purposes only