>
 >
Ten Ton Hammer 1

Ten Ton Hammer 1 Guitar Tabs

Machine Head - Ten Ton Hammer 1 chords, tabs, tablatures, lyrics

Guitar lessons | Add/correct | Request | Top 50 tabs Artists:  A B C D E F G H I J K L M N O P Q R S T U V W X Y Z 0-9

Ten Ton Hammer 1 Guitar Tabs – Machine Head

CD, Sheet music, Poster

Do you like Ten Ton Hammer 1? Share with your friends now
Bass TabsTabsTabs v2Tabs v3
Tuning: Drop B

Intro
-/6--------6--------6---------------------------------------------------------
-/9--------9--------9--------------------------------------------------------
-----0000-----0000------0000---3-/-6--5---------------------------------------
-----0000-----0000------0000---3-/-6--5---------------------------------------
 don't play the slide at the first time                                       

-3--1--3-1-3-1-3-1--3--1------------------------------------------------------
--------------------------\0--------------------------------------------------
--------------------------\0--------------------------------------------------
                                                                              
Main Riff
-1--0--1-0-1-0-1b0--1b-0------------------------------------------------------
 bend the string lighty                                                       

Verse
--------5^---------5^--------5^----------5^-----------------------------------
-3-0-0------3-0-0------3-0-0------3-0-0---------------------------------------
-3-0-0------3-0-0------3-0-0------3-0-0------1-5-5-1-4-3-1--------------------
     .          .          .          .                                           
Chorus
--------2-2-2-2--------2-2-2-0---------2-2-2-2---------2-2-2-0----------------
-2--2-2---------3--3-3----------2--2-2----------3--3-3------------------------
                                                                              

-2--2-2--2--2-2--3--3-3--3--3-3-----------------------------------------------
-2--2-2--2--2-2--3--3-3--3--3-3-----------------------------------------------
-2--2-2--2--2-2--3--3-3--3--3-3-----------------------------------------------
    . .     . .     . .     . .                                               

-6--5--6-5-6-5-6-5--6--5------------------------------------------------------
                                                                              
Bridge
-----/6-5^------/6-5^---------------------------------------------------------
-0----------1-----------------------------------------------------------------
-0----------1-----------------------------------------------------------------                                                                                                                  

-0----------------------------------------------------------------------------
-4----------------------------------------------------------------------------
 let this chord ring                                                          

-2--3--/6--0--2--x-x----------------------------------------------------------
-2--3--/6--0--2--x-x----------------------------------------------------------
-2--3--/6--0--2--x-x----------------------------------------------------------
                                                                              

-0-0-0-0-0-0-0-0-0-0-0-0-0-0-0-0-0-0-0-0-0-0-0-0-0----------------------------
-5-5-5-5-5-5-5-5-5-5-5-5-5-5-5-5-5-5-5-5-5-5-5-5-5----------------------------
                                                                              

--0-0-0-0-0-0-0-0-0-0-0-0-0-0-/-0-0-0-0-0-0-0-0-0-0-0-0-0---------------------
--5-5-5-5-5-5-5-5-5-5-5-5-5-5-/-12121212121212121212121212--------------------





Comments


Popular Machine Head tabs & chords
Aesthetics Of Hate 1 Bass Tabs
Deafening Silence 2 Bass Tabs
Imperium 5 String Bass Tabs
Now I Lay Thee Down Bass Tabs
Trephination Bass Tabs
Blistering Tabs
Block Tabs
Clenching The Fists Of Dissent Intro 1 Tabs
Imperium 1 Tabs
Message In A Bottle Tabs


Song lyrics



↑ Back to top | Tablatures and chords are parodies/interpretations of the original songs. You may use it for private study, scholarship, research or language learning purposes only
© 2014 AZChords.com Contact us | Privacy policy | DMCA | Add/correct tabs | Request tabs | Top 50 tabs