» » »

Machine Head, Ten Ton Hammer Tabs (ver.1)

Artists:  A B C D E F G H I J K L M N O P Q R S T U V W X Y Z # 

Ten Ton Hammer Tabs (ver.1)

Machine Head Tabs
Rating:
0/5 (0 votes)
Ten Ton Hammer lessons Tabs too difficult? Try these video lessons and learn fast
                I Think This Song Is Played In Drop B Tuning
Riff A 
|---0--------------0--------------0------------------------|
|---4--------------4--------------4------------------------|
|----------------------------------------------------------|
|----------------------------------------------------------|
|------2--2--2--2-----2--2--2--2-----2--2--2--2--5--8--7---|
|------0--0--0--0-----0--0--0--0-----0--0--0--0--3--6--5---|  
Riff B
 
|----------------------------------------------|
|----------------------------------------------|
|----------------------------------------------|
|---5--3-----5--3--5--3--5-----3-----5-----3---|
|----------------------------------------------|
|----------------------------------------------|  
Riff C
 
|----------------------------------------------|
|----------------------------------------------|
|----------------------------------------------|
|----------------------------------------------|
|----------------------------------------------|
|---1--0-----1--0--1--0--1-----0-----1-----0---|  
Riff D
 
|---------------------------------------------------|
|------------(3)--------------(3)-------------(3)---|
|---------------------------------------------------|
|---------------------------------------------------|
|---3--2-------------3--2------------3--2-----------|
|---1--0--0----------1--0--0---------1--0--0--------|
 
|-------------------------------------| 
|-----------(3)-----------------------|
|-------------------------------------| 
|-------------------------------------|
|--3--2-------------------------------| 
|--1--0--0------1--5--5--1--4--3--1---|
  
Riff E 
|----------------------------------------|
|----------------------------------------|
|----------9--9--9----------9--9--9------|
|---11--------------11---------------11--|
|---9-------------------10---------------|
|----------------------------------------|                     
 
|----------------------------------------|
|----------------------------------------|
|----------------------------------------|
|----------2--2--2----------2--2--2------|
|---4---------------4----------------4---|
|---2-------------------3----------------|  
Riff F
 
|----------------------------------------------------|
|----------------------------------------------------|
|----------------------------------------------------|
|----------------------------------------------------|
|---4-----4--4--4-----4--4--5-----5--5--5-----5--5---|
|---2-----2--2--2-----2--2--3-----3--3--3-----3--3---|  
Riff G
 
|----------------------------------------------|
|----------------------------------------------|
|----------------------------------------------|
|---6--5-----6--5--6--5--6-----5-----6-----5---|
|----------------------------------------------|
|----------------------------------------------|
 
 Riff H: Guit 1                     Guit 2
 |-------------------------------| |--------------------------------|
 |-------------------------------| |--------------------------------|
 |------/4--(3)--------/4--(3)---| |--------------------------------|
 |-------------------------------| |--------------------------------|
 |-------------------------------| |---2---------------3------------|
 |---0--------------1------------| |---0---------------1------------|  
Riff I
 
|----------------------------------------------------|
|---0--0--0--0--0--0--0--0--0--0--0--0--0--0--0--0---|
|---4--4--4--4--4--4--4--4--4--4--4--4--4--4--4--4---|
|----------------------------------------------------|
|----------------------------------------------------|
|----------------------------------------------------|  
Riff J      Riff K
 
|---x--x---|---------------------x--x---|
|---x--x---|---------------------x--x---|
|---x--x---|---------------------x--x---|
|---x--x---|---------------------x--x---|
|---x--x---|---4--5--8-----2--4--x--x---|
|---x--x---|---2--3--6-----0--2--x--x---|  
Riff L

|----------------------------------------------------|
|----------------------------------------------------|
|---0--0--0--0--0--0--0--0--0--0--0--0--0--0--0--0---|
|---5--5--5--5--5--5--5--5--5--5--5--5--5--5--5--5---|
|----------------------------------------------------|
|----------------------------------------------------|  
Riff M

|---0--0--0--0--0--0--0--0--0---0---0---0---0---0---0---0----|
|---5--5--5--5--5--5--5--5--12--12--12--12--12--12--12--12---|
|------------------------------------------------------------|
|------------------------------------------------------------|
|------------------------------------------------------------|
|------------------------------------------------------------|  
Song Order:
 
Riff A (x4)  
Riff B (x1)  
Riff C (x4)  
Riff D (x2) 1st Verse 
Riff E (x4) Chorus
Riff F (x3) Chorus 
Riff G (x1)  
Riff C (x4)  
Riff D (x2) 2nd Verse
Riff E (x4) Chorus 
Riff F (x3) Chorus 
Riff H (x4)  
Riff I (x2)  
Riff J (x5) 
Riff K (x8) "I can't stand or take..." 
Riff L (x4)  
Riff E (x8) Chorus
Riff F (x3) Chorus 
Riff M (x1)  
Riff C (x4)
            
Submit corrections

comments powered by Disqus
↑ Back to top | Machine Head Tabs for Ten Ton Hammer. Lyrics for acoustic guitar and electric guitar. Tablatures and chords are parodies/interpretations of the original songs. You may use it for private study, scholarship, research or language learning purposes only