>
 >
Ten Ton Hammer 2

Ten Ton Hammer 2 Guitar Tabs

Machine Head - Ten Ton Hammer 2 chords, tabs, tablatures, lyrics

Guitar lessons | Add/correct | Request | Top 50 tabs Artists:  A B C D E F G H I J K L M N O P Q R S T U V W X Y Z 0-9

Ten Ton Hammer 2 Guitar Tabs – Machine Head

CD, Sheet music, Poster

Do you like Ten Ton Hammer 2? Share with your friends now
Bass TabsTabsTabs v2Tabs v3
----------------------------------------------------------------------------
                        TEN TON HAMMER - Machine Head
----------------------------------------------------------------------------

Tuning: Drop B (B F# B F G# C#)

Note: Notice the 3rd string tuning, it is tuned from E to F. Don't ask me why,
it makes the harmonics sound better. Robb Flynn said it himself.

Intro (x4):

C#|-------------------------------------------|
G#|--9----------9----------9------------------|
F |--11---------11---------11-----------------|
B |-----0-0-0-0----0-0-0-0----0-0-0-0--3-6-5--|
F#|-----0-0-0-0----0-0-0-0----0-0-0-0--3-6-5--|
B |-----0-0-0-0----0-0-0-0----0-0-0-0--3-6-5--|
        . . . .    . . . .    . . . .

Transition:

C#|-----------------------|
G#|-----------------------|
F |-----------------------|
B |-----------------------|
F#|--6/8\6-6/8\6/8\6/8\6--|
B |-----------------------|

Main Riff (x4):

C#|-------------------------|
G#|-------------------------|
F |-------------------------|
B |--1-0--0-1-0-0--1-0-1-0--|
F#|--1-0--0-1-0-0--1-0-1-0--|
B |--1-0--0-1-0-0--1-0-1-0--|

Verse (x2):(Use tremelo picking for last part.)

C#|---------------------------------------------|--------------|
G#|---------------------------------------------|--------------|
F |---------5*---------5*---------5*---------5*-|--------------|
B |--3-0--0-----3-0--0-----3-0--0-----3-0--0----|-0-66/55/4/3--|
F#|--3-0--0-----3-0--0-----3-0--0-----3-0--0----|-0-66/55/4/3--|
B |--3-0--0-----3-0--0-----3-0--0-----3-0--0----|-0-66/55/4/3--|

Pre-Chorus (x2):

C#|--------------------------------------------------|
G#|--------------------------------------------------|
F |--------------------------------------------------|
B |------2-2-2-2----2-2-2-0-----2-2-2-2-----2-2-2-0--|
F#|----2----------2-----------2-----------2----------|
B |--2----------3-----------2-----------3------------|

Chorus (x3):

C#|-----------------------------------|
G#|-----------------------------------|
F |-----------------------------------|
B |--2--2-2--2--2-2---3--3-3--3--3-3--|
F#|--2--2-2--2--2-2---3--3-3--3--3-3--|
B |--2--2-2--2--2-2---3--3-3--3--3-3--|
        . .     . .      . .     . .

Transition:

C#|-----------------------|
G#|-----------------------|
F |-----------------------|
B |-----------------------|
F#|--6/8\6-6/8\6/8\6/8\6--|
B |-----------------------|

Main Riff (x4):

C#|-------------------------|
G#|-------------------------|
F |-------------------------|
B |--1-0--0-1-0-0--1-0-1-0--|
F#|--1-0--0-1-0-0--1-0-1-0--|
B |--1-0--0-1-0-0--1-0-1-0--|

Verse (x2):
(Use tremelo picking for last part.)

C#|---------------------------------------------|--------------|
G#|---------------------------------------------|--------------|
F |---------5*---------5*---------5*---------5*-|--------------|
B |--3-0--0-----3-0--0-----3-0--0-----3-0--0----|-0-66/55/4/3--|
F#|--3-0--0-----3-0--0-----3-0--0-----3-0--0----|-0-66/55/4/3--|
B |--3-0--0-----3-0--0-----3-0--0-----3-0--0----|-0-66/55/4/3--|

Pre-Chorus (x2):

C#|--------------------------------------------------|
G#|--------------------------------------------------|
F |--------------------------------------------------|
B |------2-2-2-2----2-2-2-0-----2-2-2-2-----2-2-2-0--|
F#|----2----------2-----------2-----------2----------|
B |--2----------3-----------2-----------3------------|

Chorus (x3):

C#|-----------------------------------|
G#|-----------------------------------|
F |-----------------------------------|
B |--2--2-2--2--2-2---3--3-3--3--3-3--|
F#|--2--2-2--2--2-2---3--3-3--3--3-3--|
B |--2--2-2--2--2-2---3--3-3--3--3-3--|
        . .     . .      . .     . .

Bridge (x2):

C#|---------------------------------------|
G#|---------------------------------------|
F |---------------------------------------|
B |----7-6---7-6---7-6---7-6-(6)-(6)/24\--|
F#|---------------------------------------|
B |--0-----1-----0-----1------------------|

Bridge (Continued):

C#|---------------------------------|
G#|---------------------------------|
F |---------------------------------|
B |-----------------------x///////--|
F#|--x-x-0--x-x-0--x-x-0--x///////--|
B |--x-x-0--x-x-0--x-x-0--x///////--|

Climax (x4):
(Play last section on forth time through, strumming)

C#|--------------------------------|-----|
G#|--------------------------------|--5--|
F |--------------------------------|-----|
B |--2-3/6-0-2-x-x--2-3/6-0-2-x-x--|--3--|
F#|--2-3/6-0-2-x-x--2-3/6-0-2-x-x--|-----|
B |--2-3/6-0-2-x-x--2-3/6-0-2-x-x--|-----|

Pre-Chorus (x4):

C#|--------------------------------------------------|
G#|--------------------------------------------------|
F |--------------------------------------------------|
B |------2-2-2-2----2-2-2-0-----2-2-2-2-----2-2-2-0--|
F#|----2----------2-----------2-----------2----------|
B |--2----------3-----------2-----------3------------|

Chorus (x3):

C#|-----------------------------------|-----|
G#|-----------------------------------|--5--|
F |-----------------------------------|-----|
B |--2--2-2--2--2-2---3--3-3--3--3-3--|--3--|
F#|--2--2-2--2--2-2---3--3-3--3--3-3--|-----|
B |--2--2-2--2--2-2---3--3-3--3--3-3--|-----|
        . .     . .      . .     . .

Outro (x4):

C#|-------------------------|
G#|-------------------------|
F |-------------------------|
B |--1-0--0-1-0-0--1-0-1-0--|
F#|--1-0--0-1-0-0--1-0-1-0--|
B |--1-0--0-1-0-0--1-0-1-0--|





Comments


Popular Machine Head tabs & chords
Beautiful Mourning Tabs
Bow Down To None Tabs
Burning Red 3 Tabs
Deafening Silence 1 Tabs
From This Day Tabs
From This Day (Intro) Tabs
None But My Own 1 Tabs
Now I Lay Thee Down Tabs
Now I Lay Thee Down 4 Tabs
Ten Ton Hammer Tabs


Song lyrics



↑ Back to top | Tablatures and chords are parodies/interpretations of the original songs. You may use it for private study, scholarship, research or language learning purposes only
© 2014 AZChords.com Contact us | Privacy policy | DMCA | Add/correct tabs | Request tabs | Top 50 tabs