» » »

Linkin Park, Runaway, With 6 Strings Tabs (ver.2)

Artists:  A B C D E F G H I J K L M N O P Q R S T U V W X Y Z # 

Runaway, With 6 Strings Tabs (ver.2)

Linkin Park Tabs
 Rating:
4/5 (4 votes)
Runaway, With 6 Strings lessons Tabs too difficult? Try these video lessons and learn fast
                Hey all... another 7 string tab for ya. As always, its in standard tuning. I was too lazy to do the timing and progression but here is the music you can figure it out.

Intro:
E-------------------------------------------------
B-------------------------------------------------
G-------------------------------------------------
D-9--12--5--7-------------------------------------
A-9--12--5--7-------------------------------------
E-7--10--3--5-------------------------------------
B-------------------------------------------------
Repeat as many times as needed

Chorus:
E----------------------------------------------------------
B----------------------------------------------------------
G----------------------------------------------------------
D------12--------------------------------------------------
A-2----12--10---12-----------------------------------------
E-2----10--10---12-----------------------------------------
B-0--------8----10-----------------------------------------
Repeat as many times as needed

Bridge:
E----------------------------------------
B----------------------------------------
G----------------------------------------
D----------------------------------------
A-2--2-2-3-2-2-2--2-2-2-3----------------
E-2--2-2-3-2-2-2--2-2-2-3----------------
B-0--0-0-1-0-0-0--0-0-0-1----------------
As always, repeat as many times as needed.
            
Submit corrections

comments powered by Disqus
↑ Back to top | Linkin Park Tabs for Runaway, With 6 Strings. Lyrics for acoustic guitar and electric guitar. Tablatures and chords are parodies/interpretations of the original songs. You may use it for private study, scholarship, research or language learning purposes only