» » »

Points Of Authority Tabs (ver.4)

Artists:  A B C D E F G H I J K L M N O P Q R S T U V W X Y Z # 

Points Of Authority Tabs (ver.4)

Linkin Park
Rating:
0/5 (0 votes)

Hard to play? Try these video lessons and learn fast.
                Tuning: Drop D half step down
I think this is 100% correct.

Intro   (Keyboard Arranged for Guitar) (Repeat as needed)
-----7-------7-------7-------7-------7-------7-------7-------7-------7--------
---8---8---8---8---8---8---8---8---8---8---8---8---8---8---8---8---8---8------
-9-------9-------9-------9-------9-------9-------9-------9-------9-------9----
                                                                             
Verse (repeat as needed)
-2-2-x-x-0-2-2-2-3-0-2-2-x-x--2-x--0-x--3-x-----------------------------------
-2-2-x-x-0-2-2-2-3-0-2-2-x-x--2-x--0-x--3-x-----------------------------------
-2-2-x-x-0-2-2-2-3-0-2-2-x-x--2-x--0-x--3-x-----------------------------------
                                                                              
Chorus (repeat as needed)
-2--3--2--3--2--3--2--3--2----------------------------------------------------
-2--3--2--3--2--3--2--3--2----------------------------------------------------
-2--3--2--3--2--3--2--3--2----------------------------------------------------
                                                                              
Thats about it this song rox.
            
Hard to play? Try these video lessons and learn fast. | Correct




comments powered by Disqus
↑ Back to top | Tablatures and chords are parodies/interpretations of the original songs. You may use it for private study, scholarship, research or language learning purposes only