» » »

Points Of Authority Tabs

Artists:  A B C D E F G H I J K L M N O P Q R S T U V W X Y Z # 

Points Of Authority Tabs

(ver. 1)
Linkin Park Tabs
 Rating:
4/5 (4 votes)
    Points Of Authority lessons Tabs too difficult? Try these video lessons and learn fast
                
Comment: This is the Points of Authority Tab
 I also added the lyrics cause they're awesome
 The Outro is based on the Verse, but it differs in some aspects
 Just listen to it. The Differences are the volume and there are some breaks
 It would be to complicated to describe them. But you'll make it! Have fun!

     awesomme demo tapes from Linkin Park. They rule!!!

____________________________________________________________________________________________
GUITAR TAB

"points of authority" - guitar by Brad Delson

6-STRING GUITAR

Tuning: Drop C#


Intro
D#|--------------------------------------------------|
A#|--------------------------------------------------|
F#|--------------------------------------------------|
c#|-2-2--2-2--2--0-2--2-3--0-2-2--2-2--2-2--2-0--0-3-|
G#|-2-2--2-2--2--0-2--2-3--0-2-2--2-2--2-2--2-0--0-3-|
C#|-2-2--2-2--2--0-2--2-3--0-2-2--2-2--2-2--2-0--0-3-|
         ^----^                   ^----^               p.m.
D#|---------------------------------------|
A#|---------------------------------------|
F#|---------------------------------------|
c#|-2-2--2-2--2--0-2--2-3--0-2-2--2-2-----|
G#|-2-2--2-2--2--0-2--2-3--0-2-2--2-2-R---|
C#|-2-2--2-2--2--0-2--2-3--0-2-2--2-2-----|
         ^----^                   ^-^       p.m.

Verse
D#|--------------------------------------------------|
A#|--------------------------------------------------|
F#|--------------------------------------------------|
c#|-2-2--2-2--2--0-2--2-3--0-2-2--2-2--2-2--2-0--0-3-|
G#|-2-2--2-2--2--0-2--2-3--0-2-2--2-2--2-2--2-0--0-3-|
C#|-2-2--2-2--2--0-2--2-3--0-2-2--2-2--2-2--2-0--0-3-|
         ^----^                   ^----^               p.m.

Pre-Chorus
D#|--------------------------------------------------|
A#|--------------------------------------------------|
F#|--------------------------------------------------|
c#|-2-2--2-2--2--0-2--2-3--0-2-2--2-2--2-2---0---3---|
G#|-2-2--2-2--2--0-2--2-3--0-2-2--2-2--2-2---0---3---|
C#|-2-2--2-2--2--0-2--2-3--0-2-2--2-2--2-2---0---3---|
         ^----^                   ^----^               p.m.

Chorus                                 x3
D#|-----------------------------------|
A#|-----------------------------------|
F#|-----------------------------------|
c#|-2*---------------3*---------------|
G#|-2*---------------3*---------------|
C#|-2*---------------3*---------------|

D#|-----------------------------------|
A#|-----------------------------------|
F#|-----------------------------------|
c#|-2*---------------3*---2---0---3---|
G#|-2*---------------3*---2---0---3---|
C#|-2*---------------3*---2---0---3---|



structure:
Intro
Verse x5
Pre-Chorus
Chorus
Verse x4
Pre-Chorus
Chorus
Verse x4
Chorus x2
Outro


____________________________________________________________________________________________
LYRICS

"points of authority" - lyrics by Chester Bennington and Mike Shinoda


[intro/3.Verse:]

Forfit the game
before somebody else
takes you out of the frame
and puts your name to shame
cover up your face
you can't run the race
the pace is too fast
you just won't last

[1.Verse:]

You love the way I look at you
while taking pleasure in the aweful things you put me through
you take away if I give in
my life
my pride is broken

[Chorus:]

You like to think you're never wrong
(You live what you learned)
you want to act like you're someone
(You live what you learned)
you want someone to hurt like you
(You live what you learned)
you want to share what you've been through
(You live what you learned)

[2.Verse:]

You love the things I say I'll do
the way I'll hurt myself again just to get back at you
you take away when I give in
my life
my pride is broken

[Chorus]

[3.Verse] x2

[Chorus:]

You like to think you're never wrong
(You live what you learned)
you want to act like you're someone
(You live what you learned)
you want someone to hurt like you
(You live what you learned)
you want to share what you've been through
(You live what you learned)

You like to think you're never wrong / Forfit the game
(You live what you learned)
you want to act like you're someone / Forfit the game
(You live what you learned)
you want someone to hurt like you / Forfit the game
(You live what you learned)
you want to share what you've been through
(You live what you learned)


____________________________________________________________________________________________

 (g1)  = guitar 1
 (g2)  = guitar 2
 [d]   = distorted
 [c]   = clean
 [d/c] = both possible
 *    = let the note ring
 \    = pull down
 /    = pull up
 R    = rest
 p    = pull off
 h    = hammer on
 p.m. = palm muted
 ^    = harmonic
 s    = slap
 ~    = bend
 TUNING:

 standard:      [4-string bass]    E,A,D,G
                [5-string bass]    B,E,A,D,G
                [6-string guitar]  E,A,D,G,B,e
                [7-string guitar]  B,E,A,D,G,b,e

 special tunings for 4-string basses and 6-string guitars:

 1/2 step down: [bass]             Eb,Ab,Db,Gb
                [guitar]           Eb,Ab,Db,Gb,Bb,eb

 Drop D:        [bass]             D,A,d,G
                [guitar]           D,A,d,G,B,E

 Drop C# / Db:  [bass]             C#,G#,c#,F#       / Db,Ab,db,Gb 
                [guitar]           C#,G#,c#,F#,A#,D# / Db,Ab,db,Gb,Bb,Eb

 Drop C:        [bass]             C,G,c,F
                [guitar]           C,G,c,F,A,D
            
Submit corrections

↑ Back to top | Linkin Park Tabs for Points Of Authority. Lyrics for acoustic guitar and electric guitar. Tablatures and chords are parodies/interpretations of the original songs. You may use it for private study, scholarship, research or language learning purposes only