» » »

Linkin Park, 0 One Step Closer Tabs (ver.5)

Artists:  A B C D E F G H I J K L M N O P Q R S T U V W X Y Z # 

0 One Step Closer Tabs (ver.5)

Linkin Park Tabs
Rating:
0/5 (0 votes)
0 One Step Closer lessons Tabs too difficult? Try these video lessons and learn fast
                "(3)
I have seen many tabs with intros incorrect. i'm not sure of mine myself but it sounds perfect to me.

Intro
e--------------------------
b--------------------------
g--------------------------
d--------2-----------------
a----2-----3-2-------------
e--0---0-------3-2---------

the guy that did One step closer 12 is correct but i'm just seeing if peolple think this way is correct because all the intros were the same so i'm trying a new way.

the rest is

-|--------------------|------------------------------------------------------- 
-|--------------------|-x4---------------------------------------------------- 
-|--------------------|------------------------------------------------------- 
-|--------4-5-4---7---|------------------------------------------------------- 
-|-2-2--2-2-3-2-2-5---|------------------------------------------------------- 
-|-0-0--0-------0-----|------------------------------------------------------- 
   I cannot take this anymore...                                               

-|--------------------|------------------------------------------------------- 
-|--------------------|-x8---------------------------------------------------- 
-|--------------------|------------------------------------------------------- 
-|--------4-------7---|------------------------------------------------------- 
-|-2-2--2-2-3-2---5---|------------------------------------------------------- 
-|-0-0--0-------0-----|------------------------------------------------------- 
    Just like before                                                           

-|-------------|-------------------------------------------------------------- 
-|-------------|-x3----------------------------------------------------------- 
-|-------------|-------------------------------------------------------------- 
-|-------------|-------------------------------------------------------------- 
-|-7-7-x7-x7---|-------------------------------------------------------------- 
-|-5-5-x5-x5---|-------------------------------------------------------------- 
    Everything you say to me...                                                

-|-----------------------------------------|---------------------------------- 
-|-----------------------------------------|-x2------------------------------- 
-|-----------------------------------------|---------------------------------- 
-|-----9-9-7-7-----------------------------|---------------------------------- 
-|-2-2/7-7-5-5-9-9-10-10-7-7-9-9-3-3-------|---------------------------------- 
-|-0-0---------7-7--8--8-5-5-7-7-1-1-------|---------------------------------- 
    I find the answers are so clear...                                         

-|-------------------|-------------------------------------------------------- 
-|-------------------|-x8----------------------------------------------------- 
-|-------------------|-------------------------------------------------------- 
-|--------4-------7--|-------------------------------------------------------- 
-|-2-2--2-2-3-2---5--|-------------------------------------------------------- 
-|-0-0--0-------0----|-------------------------------------------------------- 
    Just like before                                                           

-|------------|---------|--------------|-------------------------------------- 
-|------------|-x3------|-9^-9^-9^-9^--|-x1----------------------------------- 
-|------------|---------|-9^-9^-9^-9^--|-------------------------------------- 
-|------------|---------|--------------|-------------------------------------- 
-|-7-7-x7-x7--|---------|--------------|-------------------------------------- 
-|-5-5-x5-x5--|---------|--------------|-------------------------------------- 
    Everything you say to me...                                                

-|----------------------------------------|----------------------------------- 
-|----------------------------------------|-x4-------------------------------- 
-|----------------------------------------|----------------------------------- 
-|-----9-9-7-7----------------------------|----------------------------------- 
-|-2-2-7-7-5-5-9-9-10-10-7-7-9-9-3-3------|----------------------------------- 
-|-0-0---------7-7--8--8-5-5-7-7-1-1------|----------------------------------- 
    And Im about to...             Break.                                      

--------------------|-------------|------------------------------------------- 
--------------------|-------------|-x1---------------------------------------- 
--------------------|-------------|------------------------------------------- 
--------------------|-------------|------------------------------------------- 
--------------------|-3-3-3-3-3-3-|------------------------------------------- 
--------------------|-1-1-1-1-1-1-|------------------------------------------- 
                                                                               

-|-------------------|-------------------------------------------------------- 
-|-------------------|-x3----------------------------------------------------- 
-|-------------------|-------------------------------------------------------- 
-|-------------------|-------------------------------------------------------- 
-|---7--h9-----------|-------------------------------------------------------- 
-|-0---0---8-7-0h3---|-------------------------------------------------------- 
      Shut up when im talkin to you                                            

-|------------------|--------------------------------------------------------- 
-|------------------|-x1------------------------------------------------------ 
-|------------------|--------------------------------------------------------- 
-|------------------|--------------------------------------------------------- 
-|---7--h9----------|--------------------------------------------------------- 
-|-0---0---8-7-0h3--|--------------------------------------------------------- 
    Shut up                                                                    

-|-----------------------------|---------------------------------------------- 
-|-----------------------------|-x4------------------------------------------- 
-|-----------------------------|---------------------------------------------- 
-|----------------------3------|---------------------------------------------- 
-|-3-2---2-2--2-3-5-3-2-1-3-5--|---------------------------------------------- 
-|-1-0---0-0--0-1-3-1-0---1-3--|---------------------------------------------- 
    Shut up when im talkin to you                                              

----------------------------------|--------|---------------------------------- 
----------------------------------|--------|-x1------------------------------- 
----------------------------------|--------|---------------------------------- 
----------------------------------|--------|---------------------------------- 
----------------------------------|-3-3-3--|---------------------------------- 
----------------------------------|-1-1-1--|---------------------------------- 
  Shut up                                                                      

-|-----------------------------|---------------------------------------------- 
-|-----------------------------|-x4------------------------------------------- 
-|-----------------------------|---------------------------------------------- 
-|----------------------3------|---------------------------------------------- 
-|-3-2---2-2--2-3-5-3-2-1-3-5--|---------------------------------------------- 
-|-1-0---0-0--0-1-3-1-0---1-3--|---------------------------------------------- 
   Im about to break                                                           

-|---------|------------------------------------------------------------------ 
-|---------|-x1--------------------------------------------------------------- 
-|---------|------------------------------------------------------------------ 
-|---------|------------------------------------------------------------------ 
-|-3-3-3---|------------------------------------------------------------------ 
-|-1-1-1---|------------------------------------------------------------------ 
   Everything you say to me...                                                 

-|-----------------------------------|---------------------------------------- 
-|-----------------------------------|-x4------------------------------------- 
-|-----------------------------------|---------------------------------------- 
-|-----9-9-7-7-----------------------|---------------------------------------- 
-|-2-2-7-7-5-5-9-9-10-10-7-7-9-9-3-3-|---------------------------------------- 
-|-0-0---------7-7--8--8-5-5-7-7-1-1-|---------------------------------------- 
   ...and im about to...               Break.                                  

----------------------|---------------|--------------------------------------- 
----------------------|---------------|-x1------------------------------------ 
----------------------|---------------|--------------------------------------- 
----------------------|---------------|--------------------------------------- 
----------------------|-3-3-3-3-3-3---|--------------------------------------- 
----------------------|-1-1-1-1-1-1---|---------------------------------------
"            

comments powered by Disqus
↑ Back to top | Linkin Park Tabs for 0 One Step Closer. Lyrics for acoustic guitar and electric guitar. Tablatures and chords are parodies/interpretations of the original songs. You may use it for private study, scholarship, research or language learning purposes only