» » »

Linkin Park, 0 One Step Closer Bass tabs (ver.1)

Artists:  A B C D E F G H I J K L M N O P Q R S T U V W X Y Z # 

0 One Step Closer Bass tabs (ver.1)

Linkin Park Tabs
Rating:
0/5 (0 votes)
0 One Step Closer lessons Tabs too difficult? Try these video lessons and learn fast
                Member of the Bass Tab Archive Tabbing Army

Standard Tuning(B,E,A,D,G)

Intro no bass until(0:10)
G|-----------------------|
D|-----------------------|
A|---------6-------------|[4 Times]
E|------------5-4--------|
B|--2-2-X---------X--5---|

Verse Pt.#1(0:20)
G|----------------|
D|----------------|
A|----------------|[4 Times]
E|----------5-4---|
B|--2-2-----------|

Verse Pt.#2(0:30)
G|-------------------|
D|-------------------|
A|--------6----------|[2 Times]
E|-----------5-4-----|
B|--2-2-4---------5--|

Verse Pt.#3(0:35)
G|-------------------|--------------------|
D|-------------------|--------------------|
A|--------6----------|---------6----------|
E|-----------5-4-----|------------5-4-----|
B|--2-2-----------5--|--2-2-X----------5--|

Rest(0:40-0:44)

Chorus(0:44)
G|---------------------------------------|
D|---------------------------------------|
A|--------4--2-2-X-4---------------------|[2 Times]
E|--------------------5-5-X-2--4-4-------|
B|--2-2-X--------------------------X-3---|

Verse Pt.#1(0:54) [4 Times]

Verse Pt.#2(1:04) [2 Times]

Verse Pt.#3(1:09) [1 Time]

Rest(1:14-1:18)

Chorus(1:18) [4 Times]

Fill #1(1:38)
G|-------------------|
D|-------------------|
A|-------------------|
E|-------------------|
B|--3-3-3-3-3-3-3-3--|

Rest(1:41-1:51)

Bridge Pt.#1(1:51)
G|---------------------------|
D|---------------------------|
A|---------------------------|[3 Times]
E|--------------------3------|
B|--3-2-X-X-X-2-5-3-2---2-5--|

Bridge Pt.#2(1:58)
G|----------------------------|
D|----------------------------|
A|----------------------------|[1 Time]
E|----------------------------|
B|--3-2-X-X-X-2-5-3-2--3-3-2--|

Bridge Pt.#1(2:01) [3 Times]

Bridge Pt.#3(2:08)
G|-----------------------------|
D|-----------------------------|
A|-----------------------------|
E|-----------------------------|
B|--3-2-X-X-X-2-5-3-2-2-2-2-2--|

Chorus(2:11) [4 Times]

Fill #1(2:31) [1 Time]


Once again, an awesome song by an awesome band. Peace
            

comments powered by Disqus
↑ Back to top | Linkin Park Bass for 0 One Step Closer. Lyrics for acoustic guitar and electric guitar. Tablatures and chords are parodies/interpretations of the original songs. You may use it for private study, scholarship, research or language learning purposes only