>
 >
One Step Closer 12

One Step Closer 12 Guitar Tabs

Linkin Park - One Step Closer 12 chords, tabs, tablatures, lyrics

Guitar lessons | Add/correct | Request | Top 50 tabs Artists:  A B C D E F G H I J K L M N O P Q R S T U V W X Y Z 0-9

One Step Closer 12 Guitar Tabs – Linkin Park

CD, Sheet music, Poster

Do you like One Step Closer 12? Share with your friends now
Tabs
-|-------------------|-------------------------------------------------------- 
-|-------------------|-x4----------------------------------------------------- 
-|-------------------|-------------------------------------------------------- 
-|-------------------|-------------------------------------------------------- 
-|---7--h9-----------|-------------------------------------------------------- 
-|-0---0---8-7-0h3---|-------------------------------------------------------- 
                                                                               

-|--------------------|------------------------------------------------------- 
-|--------------------|-x4---------------------------------------------------- 
-|--------------------|------------------------------------------------------- 
-|--------4-5-4---7---|------------------------------------------------------- 
-|-2-2--2-2-3-2-2-5---|------------------------------------------------------- 
-|-0-0--0-------0-----|------------------------------------------------------- 
   I cannot take this anymore...                                               

-|--------------------|------------------------------------------------------- 
-|--------------------|-x8---------------------------------------------------- 
-|--------------------|------------------------------------------------------- 
-|--------4-------7---|------------------------------------------------------- 
-|-2-2--2-2-3-2---5---|------------------------------------------------------- 
-|-0-0--0-------0-----|------------------------------------------------------- 
    Just like before                                                           

-|-------------|-------------------------------------------------------------- 
-|-------------|-x3----------------------------------------------------------- 
-|-------------|-------------------------------------------------------------- 
-|-------------|-------------------------------------------------------------- 
-|-7-7-x7-x7---|-------------------------------------------------------------- 
-|-5-5-x5-x5---|-------------------------------------------------------------- 
    Everything you say to me...                                                

-|-----------------------------------------|---------------------------------- 
-|-----------------------------------------|-x2------------------------------- 
-|-----------------------------------------|---------------------------------- 
-|-----9-9-7-7-----------------------------|---------------------------------- 
-|-2-2/7-7-5-5-9-9-10-10-7-7-9-9-3-3-------|---------------------------------- 
-|-0-0---------7-7--8--8-5-5-7-7-1-1-------|---------------------------------- 
    I find the answers are so clear...                                         

-|-------------------|-------------------------------------------------------- 
-|-------------------|-x8----------------------------------------------------- 
-|-------------------|-------------------------------------------------------- 
-|--------4-------7--|-------------------------------------------------------- 
-|-2-2--2-2-3-2---5--|-------------------------------------------------------- 
-|-0-0--0-------0----|-------------------------------------------------------- 
    Just like before                                                           

-|------------|---------|--------------|-------------------------------------- 
-|------------|-x3------|-9^-9^-9^-9^--|-x1----------------------------------- 
-|------------|---------|-9^-9^-9^-9^--|-------------------------------------- 
-|------------|---------|--------------|-------------------------------------- 
-|-7-7-x7-x7--|---------|--------------|-------------------------------------- 
-|-5-5-x5-x5--|---------|--------------|-------------------------------------- 
    Everything you say to me...                                                

-|----------------------------------------|----------------------------------- 
-|----------------------------------------|-x4-------------------------------- 
-|----------------------------------------|----------------------------------- 
-|-----9-9-7-7----------------------------|----------------------------------- 
-|-2-2-7-7-5-5-9-9-10-10-7-7-9-9-3-3------|----------------------------------- 
-|-0-0---------7-7--8--8-5-5-7-7-1-1------|----------------------------------- 
    And Im about to...             Break.                                      

--------------------|-------------|------------------------------------------- 
--------------------|-------------|-x1---------------------------------------- 
--------------------|-------------|------------------------------------------- 
--------------------|-------------|------------------------------------------- 
--------------------|-3-3-3-3-3-3-|------------------------------------------- 
--------------------|-1-1-1-1-1-1-|------------------------------------------- 
                                                                               

-|-------------------|-------------------------------------------------------- 
-|-------------------|-x3----------------------------------------------------- 
-|-------------------|-------------------------------------------------------- 
-|-------------------|-------------------------------------------------------- 
-|---7--h9-----------|-------------------------------------------------------- 
-|-0---0---8-7-0h3---|-------------------------------------------------------- 
      Shut up when im talkin to you                                            

-|------------------|--------------------------------------------------------- 
-|------------------|-x1------------------------------------------------------ 
-|------------------|--------------------------------------------------------- 
-|------------------|--------------------------------------------------------- 
-|---7--h9----------|--------------------------------------------------------- 
-|-0---0---8-7-0h3--|--------------------------------------------------------- 
    Shut up                                                                    

-|-----------------------------|---------------------------------------------- 
-|-----------------------------|-x4------------------------------------------- 
-|-----------------------------|---------------------------------------------- 
-|----------------------3------|---------------------------------------------- 
-|-3-2---2-2--2-3-5-3-2-1-3-5--|---------------------------------------------- 
-|-1-0---0-0--0-1-3-1-0---1-3--|---------------------------------------------- 
    Shut up when im talkin to you                                              

----------------------------------|--------|---------------------------------- 
----------------------------------|--------|-x1------------------------------- 
----------------------------------|--------|---------------------------------- 
----------------------------------|--------|---------------------------------- 
----------------------------------|-3-3-3--|---------------------------------- 
----------------------------------|-1-1-1--|---------------------------------- 
  Shut up                                                                      

-|-----------------------------|---------------------------------------------- 
-|-----------------------------|-x4------------------------------------------- 
-|-----------------------------|---------------------------------------------- 
-|----------------------3------|---------------------------------------------- 
-|-3-2---2-2--2-3-5-3-2-1-3-5--|---------------------------------------------- 
-|-1-0---0-0--0-1-3-1-0---1-3--|---------------------------------------------- 
   Im about to break                                                           

-|---------|------------------------------------------------------------------ 
-|---------|-x1--------------------------------------------------------------- 
-|---------|------------------------------------------------------------------ 
-|---------|------------------------------------------------------------------ 
-|-3-3-3---|------------------------------------------------------------------ 
-|-1-1-1---|------------------------------------------------------------------ 
   Everything you say to me...                                                 

-|-----------------------------------|---------------------------------------- 
-|-----------------------------------|-x4------------------------------------- 
-|-----------------------------------|---------------------------------------- 
-|-----9-9-7-7-----------------------|---------------------------------------- 
-|-2-2-7-7-5-5-9-9-10-10-7-7-9-9-3-3-|---------------------------------------- 
-|-0-0---------7-7--8--8-5-5-7-7-1-1-|---------------------------------------- 
   ...and im about to...               Break.                                  

----------------------|---------------|--------------------------------------- 
----------------------|---------------|-x1------------------------------------ 
----------------------|---------------|--------------------------------------- 
----------------------|---------------|--------------------------------------- 
----------------------|-3-3-3-3-3-3---|--------------------------------------- 
----------------------|-1-1-1-1-1-1---|--------------------------------------- 
                                                                              





Comments


Popular Linkin Park tabs & chords
Burning In The Skies Chords
Numb 3 Chords
Powerless Chords
A06 1 Tabs
Blackout Tabs
Don't Stay 2 Tabs
Faint Full Tabs
New Divide Tabs
Sumwhere I Blongguitar Tabs For Tabs
Bubbles Ukulele


Song lyrics



↑ Back to top | Tablatures and chords are parodies/interpretations of the original songs. You may use it for private study, scholarship, research or language learning purposes only
© 2014 AZChords.com Contact us | Privacy policy | DMCA | Add/correct tabs | Request tabs | Top 50 tabs