» » »

Faint Tabs (ver.1)

Artists:  A B C D E F G H I J K L M N O P Q R S T U V W X Y Z # 

Faint Tabs (ver.1)

Linkin Park
Rating:
0/5 (0 votes)

Hard to play? Try these video lessons and learn fast.
                
Intro A (Guitar 1)
(First Time) 
e-----------|------------------------------------------------
B-----------|------------------------------------------------
G--6-6-6-6--|-6-6-6--13-13--11-11-11-11-11-11--13-13--9-9-9--
D--x-x-x-x--|-x-x-x--x--x---x--x--x--x--x--x---x--x---x-x-x-- x4
A--4-4-4-4--|-4-4-4--11-11--9--9--9--9--9--9---11-11--7-7-7--
D-----------|------------------------------------------------

Intro B (Guitar 2)
e------------------------------------------------------------------
B------------------------------------------------------------------
G------------------------------------------------------------------
D--0-0-0-0-0-0-0--3-3-3-3-3-3-3--7-7-7-7-7-7-7--4-4-4-6-6-2-2-2---- x2
A--0-0-0-0-0-0-0--3-3-3-3-3-3-3--7-7-7-7-7-7-7--4-4-4-6-6-2-2-2----
D--0-0-0-0-0-0-0--3-3-3-3-3-3-3--7-7-7-7-7-7-7--4-4-4-6-6-2-2-2----

Verse 1
e----------------------------------------------------------------
B----------------------------------------------------------------
G----------------------------------------------------------------
D--11-11--11-11--11-11--7-7--9-9--------------------------------- x1
A--11-11--11-11--11-11--7-7--9-9---------------------------------
D--11-11--11-11--11-11--7-7--9-9---------------------------------
("I am, a little bit of...")

Chorus (Guitar 1)
e-----------|------------------------------------------------
B-----------|------------------------------------------------
G--6-6-6-6--|-6-6-6--13-13--11-11-11-11-11-11--13-13--9-9-9--
D--x-x-x-x--|-x-x-x--x--x---x--x--x--x--x--x---x--x---x-x-x-- x3 ---------
A--4-4-4-4--|-4-4-4--11-11--9--9--9--9--9--9---11-11--7-7-7--            | 
D-----------|------------------------------------------------            |
                                                                         |
Chorus (Guitar 2)                                                        |
e------------------------------------------------------------------      |
B------------------------------------------------------------------      |
G------------------------------------------------------------------      |
D--0-0-0-0-0-0-0--3-3-3-3-3-3-3--7-7-7-7-7-7-7--4-4-4-6-6-2-2-2---- x1 --|--
A--0-0-0-0-0-0-0--3-3-3-3-3-3-3--7-7-7-7-7-7-7--4-4-4-6-6-2-2-2----      | |
D--0-0-0-0-0-0-0--3-3-3-3-3-3-3--7-7-7-7-7-7-7--4-4-4-6-6-2-2-2----      | |
                                                                         | |
Chorus (Last time through) (Guitar 1)                                    | |
e-------------------------------------------------------------------  <--- |
B-------------------------------------------------------------------       |
G--6-6-6--13-13--11-11-11-11-11-11--13-13--9-9-9-9-9-9-9-9-9-9-9-9--       |
D--x-x-x--x--x---x--x--x--x--x--x---x--x---x-x-x-x-x-x-x-x-x-x-x-x-- x1    |
A--4-4-4--11-11--9--9--9--9--9--9---11-11--7-7-7-7-7-7-7-7-7-7-7-7--       |
D-------------------------------------------------------------------       |
                                                                           v
Chorus (Last time through) (Guitar 2)
e----------------------------------------------------------------------------------
B----------------------------------------------------------------------------------
G----------------------------------------------------------------------------------
D--0-0-0-0-0-0-0--3-3-3-3-3-3-3--7-7-7-7-7-7-7--4-4-4-6-6-2-2-2-2-2-2-2-2-2-2-2-2-- x1
A--0-0-0-0-0-0-0--3-3-3-3-3-3-3--7-7-7-7-7-7-7--4-4-4-6-6-2-2-2-2-2-2-2-2-2-2-2-2--
D--0-0-0-0-0-0-0--3-3-3-3-3-3-3--7-7-7-7-7-7-7--4-4-4-6-6-2-2-2-2-2-2-2-2-2-2-2-2--

Verse 2
e----------------------------------------------------------------
B----------------------------------------------------------------
G----------------------------------------------------------------
D--11-11--11-11--11-11--7-7--9-9--------------------------------- x1
A--11-11--11-11--11-11--7-7--9-9---------------------------------
D--11-11--11-11--11-11--7-7--9-9---------------------------------
("I am, a little bit of...")

Chorus (Guitar 1) 
(First Time) 
e-----------|-----------------------------------------------
B-----------|-----------------------------------------------
G--6-6-6-6--|-6-6-6--13-13--11-11-11-11-11-11--13-13--9-9-9-
D--x-x-x-x--|-x-x-x--x--x---x--x--x--x--x--x---x--x---x-x-x- x3 ----------
A--4-4-4-4--|-4-4-4--11-11--9--9--9--9--9--9---11-11--7-7-7-             | 
D-----------|-----------------------------------------------             |
                                                                         |
Chorus (Guitar 2)                                                        |
e------------------------------------------------------------------      |
B------------------------------------------------------------------      |
G------------------------------------------------------------------      |
D--0-0-0-0-0-0-0--3-3-3-3-3-3-3--7-7-7-7-7-7-7--4-4-4-6-6-2-2-2---- x1 --|--
A--0-0-0-0-0-0-0--3-3-3-3-3-3-3--7-7-7-7-7-7-7--4-4-4-6-6-2-2-2----      | |
D--0-0-0-0-0-0-0--3-3-3-3-3-3-3--7-7-7-7-7-7-7--4-4-4-6-6-2-2-2----      | |
                                                                         | |
Chorus (Last time through) (Guitar 1)                                    | |
e-------------------------------------------------------------------  <--- |
B-------------------------------------------------------------------       |
G--6-6-6--13-13--11-11-11-11-11-11--13-13--9-9-9-9-9-9-9-9-9-9-9-9--       |
D--x-x-x--x--x---x--x--x--x--x--x---x--x---x-x-x-x-x-x-x-x-x-x-x-x-- x1    |
A--4-4-4--11-11--9--9--9--9--9--9---11-11--7-7-7-7-7-7-7-7-7-7-7-7--       |
D-------------------------------------------------------------------       |
                                                                           v
Chorus (Last time through) (Guitar 2)
e----------------------------------------------------------------------------------
B----------------------------------------------------------------------------------
G----------------------------------------------------------------------------------
D--0-0-0-0-0-0-0--3-3-3-3-3-3-3--7-7-7-7-7-7-7--4-4-4-6-6-2-2-2-2-2-2-2-2-2-2-2-2-- x1
A--0-0-0-0-0-0-0--3-3-3-3-3-3-3--7-7-7-7-7-7-7--4-4-4-6-6-2-2-2-2-2-2-2-2-2-2-2-2--
D--0-0-0-0-0-0-0--3-3-3-3-3-3-3--7-7-7-7-7-7-7--4-4-4-6-6-2-2-2-2-2-2-2-2-2-2-2-2--

Bridge
e----------------------------------------------------------
B----------------------------------------------------------
G----------------------------------------------------------
D--0-6-2-1-2-1--0-0-0-6-2-1-2-1---------------------------- x4
A--0-6-2-1-2-1--0-0-0-6-2-1-2-1----------------------------
D--0-6-2-1-2-1--0-0-0-6-2-1-2-1----------------------------
("NO, HEAR ME OUT NOW...")

Chorus (Guitar 1)
e----------------------------------------------------------
B----------------------------------------------------------
G--6-6-6--13-13--11-11-11-11-11-11--13-13--9-9-9-----------
D--x-x-x--x--x---x--x--x--x--x--x---x--x---x-x-x----------- x7 -----------
A--4-4-4--11-11--9--9--9--9--9--9---11-11--7-7-7-----------              | 
D----------------------------------------------------------              |
                                                                         |
Chorus (Guitar 2)                                                        |
e------------------------------------------------------------------      |
B------------------------------------------------------------------      |
G------------------------------------------------------------------      |
D--0-0-0-0-0-0-0--3-3-3-3-3-3-3--7-7-7-7-7-7-7--4-4-4-6-6-2-2-2---- x3 --|--
A--0-0-0-0-0-0-0--3-3-3-3-3-3-3--7-7-7-7-7-7-7--4-4-4-6-6-2-2-2----      | |
D--0-0-0-0-0-0-0--3-3-3-3-3-3-3--7-7-7-7-7-7-7--4-4-4-6-6-2-2-2----      | |
                                                                         | |
Chorus (Last time through) (Guitar 1)                                    | |
e-------------------------------------------------------------------  <--- |
B-------------------------------------------------------------------       |
G--6-6-6--13-13--11-11-11-11-11-11--13-13--9-9-9-9-9-9-9-9-9-7-7-7--       |
D--x-x-x--x--x---x--x--x--x--x--x---x--x---x-x-x-x-x-x-x-x-x-x-x-x-- x1    |
A--4-4-4--11-11--9--9--9--9--9--9---11-11--7-7-7-7-7-7-7-7-7-5-5-5--       |
D-------------------------------------------------------------------       |
                                                                           v
Chorus (Last time through) (Guitar 2)
e----------------------------------------------------------------------------------
B----------------------------------------------------------------------------------
G----------------------------------------------------------------------------------
D--0-0-0-0-0-0-0--3-3-3-3-3-3-3--7-7-7-7-7-7-7--4-4-4-6-6-2-2-2-2-2-2-2-2-2-0-0-0-- x1
A--0-0-0-0-0-0-0--3-3-3-3-3-3-3--7-7-7-7-7-7-7--4-4-4-6-6-2-2-2-2-2-2-2-2-2-0-0-0--
D--0-0-0-0-0-0-0--3-3-3-3-3-3-3--7-7-7-7-7-7-7--4-4-4-6-6-2-2-2-2-2-2-2-2-2-0-0-0--

If you have any questions or comments email 
            
Hard to play? Try these video lessons and learn fast. | Correct




comments powered by Disqus
↑ Back to top | Tablatures and chords are parodies/interpretations of the original songs. You may use it for private study, scholarship, research or language learning purposes only