» » »

Crawling Tabs (ver.1)

Artists:  A B C D E F G H I J K L M N O P Q R S T U V W X Y Z # 

Crawling Tabs (ver.1)

Linkin Park
Rating:
0/5 (0 votes)

Hard to play? Try these video lessons and learn fast.
                PROPS GO TO: jon

intro  4x
E------19--16---------------------------------
B--14----------19--17--16--17-----------------
G---------------------------------------------
D---------------------------------------------
A---------------------------------------------
D---------------------------------------------

chorus  2x
E-----------------------------------
B-----------------------------------
G--6--7--2--4-----------------------
D--6--7--2--4-----------------------
A--4--7--2--0-----------------------
D-----------------------------------

intro  2x
E------19--16-----------------------
B--14----------19--17--16--17-------
G-----------------------------------
D-----------------------------------
A-----------------------------------
D-----------------------------------

pre chorus 8x
E--21-------------------------------
B------21--19--21-------------------
G-----------------------------------
D-----------------------------------
A-----------------------------------
D-----------------------------------

chorus  2x
E-----------------------------------
B-----------------------------------
G--6--7--2--4-----------------------
D--6--7--2--4-----------------------
A--4--7--2--0-----------------------
D-----------------------------------

pre chorus 8x
E--21-------------------------------
B------21--19--21-------------------
G-----------------------------------
D-----------------------------------
A-----------------------------------
D-----------------------------------

chorus 4x
E-----------------------------------
B-----------------------------------
G--6--7--2--4-----------------------
D--6--7--2--4-----------------------
A--4--7--2--0-----------------------
D-----------------------------------
            
Hard to play? Try these video lessons and learn fast. | Correct




comments powered by Disqus
↑ Back to top | Tablatures and chords are parodies/interpretations of the original songs. You may use it for private study, scholarship, research or language learning purposes only