» » »

Linkin Park, Blackbirds Tabs (ver.1)

Artists:  A B C D E F G H I J K L M N O P Q R S T U V W X Y Z # 

Blackbirds Tabs (ver.1)

Linkin Park Tabs
Rating:
5/5 (2 votes)
Blackbirds lessons Tabs too difficult? Try these video lessons and learn fast
                -----------------------------------------------------------------------------
-----------------------------------------------------------------------------

This is my tab for the song Blackbirds by Linkin Park which is featured in the game: 
Park 8-Bit Rebellion.

The first day I heard this song I tabbed it for you guys, enjoy!!


Tuning: Standard

(Intro, First Verse and First Chorus)
e|---------------------------------|
B|---------------------------------|
G|-7---7---7---7---7---7---7---7---| Play this riff 12 times
D|---------------------------------|
A|---5---5---5---5---5---5---5---5-|
E|---------------------------------|


(Second Verse)
e|-----------5---------------5---------------5-------8---8------------|
B|---6---8-------6---6---8-------6---6---8-------6-----------8---8----|
G|-7---7---7---7---7---7---7---7---7---7---7---7---7---7---7---7------|
D|--------------------------------------------------------------------|
A|--------------------------------------------------------------------|
E|--------------------------------------------------------------------|

e|-----------5---------------5---------------5-------8---8------------|
B|---6---8-------6---6---8-------6---6---8-------6-----------8---8----|
G|-7---7---7---7---7---7---7---7---7---7---7---7---7---7---7---7------|
D|--------------------------------------------------------------------|
A|--------------------------------------------------------------------|
E|--------------------------------------------------------------------|

e|-----------5---------------5---------------5-------8---8------------|
B|---6---8-------6---6---8-------6---6---8-------6-----------8---8----|
G|-7---7---7---7---7---7---7---7---7---7---7---7---7---7---7---7------|
D|--------------------------------------------------------------------|
A|--------------------------------------------------------------------|
E|--------------------------------------------------------------------|

e|-----------5---------------5---------------5-------8---8------------|
B|---6---8-------6---6---8-------6---6---8-------6-----------8--------|
G|-7---7---7---7---7---7---7---7---7---7---7---7---7---7---7----------|
D|--------------------------------------------------------------------|
A|--------------------------------------------------------------------|
E|--------------------------------------------------------------------|


(Second Chorus)
e|-----------5---------------5---------------5-------8---8------------|
B|---6---8-------6---6---8-------6---6---8-------6-----------8---8----|
G|-7---7---7---7---7---7---7---7---7---7---7---7---7---7---7---7------|
D|--------------------------------------------------------------------|
A|--------------------------------------------------------------------|
E|--------------------------------------------------------------------|

e|-----------5---------------5---------------5-------8---8------------|
B|---6---8-------6---6---8-------6---6---8-------6-----------8---8----|
G|-7---7---7---7---7---7---7---7---7---7---7---7---7---7---7---7------|
D|--------------------------------------------------------------------|
A|--------------------------------------------------------------------|
E|--------------------------------------------------------------------|

e|-----------5-------8---8---------|
B|---6---8-------6-----------8---8-|
G|-7---7---7---7---7---7---7---7---|
D|---------------------------------|
A|---------------------------------|
E|---------------------------------|


(Second half of rap verse)
e|--------------------------------------------------------------------|
B|--------------------------------------------------------------------|
G|7-7-7-7-7-7-7-7-7-7-7-7-7-7-7-7-7-7-7-7-7-7-7-7-7-7-7-7-7-7---------|
D|7-7-7-7-7-7-7-7-7-7-7-7-7-7-7-7-7-7-7-7-7-7-7-7-7-7-7-7-7-7---------|
A|5-5-5-5-5-5-5-5-5-5-5-5-5-5-5-5-5-5-5-5-5-5-5-5-5-5-5-5-5-5---------|
E|--------------------------------------------------------------------|
PM. . . . . . . . . . . . . . . . . . . . . . . . . . . . . .


Final Chorus
e|-----------5---------------5---------------5-------8---8------------|
B|---6---8-------6---6---8-------6---6---8-------6-----------8---8----|
G|-7---7---7---7---7---7---7---7---7---7---7---7---7---7---7---7------|
D|--------------------------------------------------------------------|
A|--------------------------------------------------------------------|
E|--------------------------------------------------------------------|

e|-----------5---------------5---------------5-------8---8------------|
B|---6---8-------6---6---8-------6---6---8-------6-----------8---8----|
G|-7---7---7---7---7---7---7---7---7---7---7---7---7---7---7---7------|
D|--------------------------------------------------------------------|
A|--------------------------------------------------------------------|
E|--------------------------------------------------------------------|
		   *Notice that the riff changes from here on
e|-----------5-------8---8-------------------5---------------5--------|
B|---6---8-------6-----------8---8---6---8-------6---6---8-------6----|
G|-7---7---7---7---7---7---7---7---7---7---7---7---7---7---7---7------|
D|--------------------------------------------------------------------|
A|--------------------------------------------------------------------|
E|--------------------------------------------------------------------|

e|-----------5-------8---8-------------------5---------------5--------|
B|---6---8-------6-----------8---8---6---8-------6---6---8-------6----|
G|-7---7---7---7---7---7---7---7---7---7---7---7---7---7---7---7------|
D|--------------------------------------------------------------------|
A|--------------------------------------------------------------------|
E|--------------------------------------------------------------------|

e|-----------5-------8---8-----------|
B|---6---8-------6-----------8---8---|
G|-7---7---7---7---7---7---7---7---7-|
D|-----------------------------------|
A|-----------------------------------|
E|-----------------------------------|
            
Submit corrections

comments powered by Disqus
↑ Back to top | Linkin Park Tabs for Blackbirds. Lyrics for acoustic guitar and electric guitar. Tablatures and chords are parodies/interpretations of the original songs. You may use it for private study, scholarship, research or language learning purposes only