>
 >
Spin 2

Spin 2 Guitar Tabs

Lifehouse - Spin 2 chords, tabs, tablatures, lyrics

Guitar lessons | Add/correct | Request | Top 50 tabs Artists:  A B C D E F G H I J K L M N O P Q R S T U V W X Y Z 0-9

Spin 2 Guitar Tabs – Lifehouse

CD, Sheet music, Poster

Do you like Spin 2? Share with your friends now
Bass TabsBass Tabs v2ChordsChords v2TabsTabs v2Tabs v3Tabs v4Ukulele
Should all be correct - Enjoy

Tuning - 1/2 step down

/ - slide

Intro:
eb|---------------------------------------------------------------|
Bb|---------------------------------------------------------------|
Gb|---------------------------------------------------------------|
Db|---------------------------------------------------------------|
Ab|---9--9--9--9--9--9--9--9--9--9--9--10-10-10-9--9--9--9--9--9--|
Eb|-2/10-10-10-10-10-10-10-10-10-10-10-10-10-10-10-10-10-10-10-10-|


eb|-------------------------------------------------|
Bb|-------------------------------------------------|
Gb|-------------------------------------------------|
Db|----------------------------------5--5--5--4--4--|
Ab|-5--5--5--5--5--5--5--5--7--7--7--7--7--7--7--7--|
Eb|-7--7--7--7--7--7--7--7--7--7--7--7--7--7--7--7--|


eb|-------------------------------------------------|
Bb|-------------------------------------------------|
Gb|-------------------------------------------------|
Db|-------------------------------------------------|
Ab|-2--2--2--2--2--2--2--2--2--2--2--2--2--2--2--2--|
Eb|-0--0--0--0--0--0--0--0--0--0--0--0--0--0--0--0--|


Verse: “Why would I chase your...” (O:12)
eb|-------------------------------------------------|
Bb|-------------------------------------------------|
Gb|-------------------------------------------------|
Db|-------------------------------------------------|
Ab|-9--9--9--9--9--9--9--9--9--9--9--9--9--9--9--9--|
Eb|-10-10-10-10-10-10-10-10-10-10-10-10-10-10-10-10-|


eb|-------------------------------------------------|
Bb|-------------------------------------------------|
Gb|-------------------------------------------------|
Db|----------------------------------5--5--5--4--4--|
Ab|-5--5--5--5--5--5--5--5--7--7--7--7--7--7--7--7--|
Eb|-7--7--7--7--7--7--7--7--7--7--7--7--7--7--7--7--|


eb|-------------------------------------------------|
Bb|-------------------------------------------------|
Gb|-------------------------------------------------|
Db|-------------------------------------------------|
Ab|-2--2--2--2--2--2--2--2--2--2--2--2--2--2--2--2--|
Eb|-0--0--0--0--0--0--0--0--0--0--0--0--0--0--0--0--|

eb|-------------------------------------------------|
Bb|-------------------------------------------------|
Gb|-------------------------------------------------|
Db|-------------------------------------------------|
Ab|-9--9--9--9--9--9--9--9--9--9--9--9--9--9--9--9--|
Eb|-10-10-10-10-10-10-10-10-10-10-10-10-10-10-10-10-|


eb|-------------------------------------------------|
Bb|-------------------------------------------------|
Gb|-------------------------------------------------|
Db|-------------------------------------------------|
Ab|-5--5--5--5--5--5--5--5--5--5--5--5--5--5--5--5--|
Eb|-7--7--7--7--7--7--7--7--7--7--7--7--7--7--7--7--|


eb|-------------------------------------------------|
Bb|-------------------------------------------------|
Gb|-------------------------------------------------|
Db|-2--2--2--2--2--2--2--2--4--4--4--4--4--4--4--4--|
Ab|-2--2--2--2--2--2--2--2--4--4--4--4--4--4--4--4--|
Eb|-0--0--0--0--0--0--0--0--2--2--2--2--2--2--2--2--|


eb|-------------------------------------------------|
Bb|-------------------------------------------------|
Gb|-------------------------------------------------|
Db|-5--5--5--5--5--5--5--5--5--5--5--5--5--5--5--5--|
Ab|-5--5--5--5--5--5--5--5--5--5--5--5--5--5--5--5--|
Eb|-3--3--3--3--3--3--3--3--3--3--3--3--3--3--3--3--|



Chorus: “When the world keeps...” (0:37)
eb|-------------------------------------------------|
Bb|-------------------------------------------------|
Gb|-7--7--7--7--7--7--7--7--7--7--7--7--7--7--7--7--|
Db|-7--7--7--7--7--7--7--7--7--7--7--7--7--7--7--7--|
Ab|-5--5--5--5--5--5--5--5--5--5--5--5--5--5--5--5--|
Eb|-------------------------------------------------|


eb|-------------------------------------------------|
Bb|-------------------------------------------------|
Gb|-4--4--4--4--4--4--4--4--4--4--4--4--4--4--4--4--|
Db|-4--4--4--4--4--4--4--4--4--4--4--4--4--4--4--4--| 
Ab|-2--2--2--2--2--2--2--2--2--2--2--2--2--2--2--2--|
Eb|-------------------------------------------------|


eb|------------------------------------------------------|
Bb|------------------------------------------------------|
Gb|------------------------------------------------------|
Db|-2--2--2--2--2--2--2--2--4--4--4--4--4--4--4--4--5----|
Ab|-2--2--2--2--2--2--2--2--4--4--4--4--4--4--4--4--5-x15|
Eb|-0--0--0--0--0--0--0--0--2--2--2--2--2--2--2--2--3----|
***x2 on the repeat

Verse x1

Chorus x1


Interlude: “It’s burning, turning....” (2:13)
eb|-10------10-14-17-18-15--10------10-14-17-18-15--|
Bb|---10--11--------------11--10--11----------------|
Gb|-------------------------------------------------|
Db|-------------------------------------------------|
Ab|-------------------------------------------------|
Eb|-------------------------------------------------|



eb|-10------10-14-17-18-15--10------10-14-17-18-15--|
Bb|---10--11--------------11--10--11----------------|
Gb|-------------------------------------------------|
Db|-------------------------------------------------|
Ab|-------------------------------------------------|
Eb|-------------------------------------------------|


eb|------------------------------------------------------|
Bb|------------------------------------------------------|
Gb|------------------------------------------------------|
Db|-2--2--2--2--2--2--2--2--4--4--4--4--4--4--4--4--5----|
Ab|-2--2--2--2--2--2--2--2--4--4--4--4--4--4--4--4--5-x15|
Eb|-0--0--0--0--0--0--0--0--2--2--2--2--2--2--2--2--3----|

Chorus x3


Outro: (3:55)
eb|-------------------------------------------------|
Bb|-------------------------------------------------|
Gb|-----7-------9-9--------11--------9--------------|
Db|---7---7---8-----8---10----10---8---8------------|
Ab|-5-----------------------------------------------|


Eb|-------------------------------------------------|
eb|-------------------------------------------------|
Bb|-------------------------------------------------|
Gb|-----7-------9--------11--------9----------------|
Db|---7---7---8---8---10----10---8---8--------------|
Ab|-5-----------------------------------------------|
Eb|-------------------------------------------------|


eb|----------------------------------------------------------------------------|
Bb|--------------------9---9---9---9-----11----11----11----11----9---9---9---9-|
Gb|---7---7---7---7--8---8---8---8----10----10----10----10-----8---8---8---8---| x2 
Db|-7---7---7---7--------------------------------------------------------------| 
Ab|----------------------------------------------------------------------------|
Eb|----------------------------------------------------------------------------|





Comments


Popular Lifehouse tabs & chords
Bridges Chords
In Your Skin Chords
Simon Chords
Sky Is Falling - Chords
Unknown Chords
Am I Ever Gonna Find Out Tabs
Better Part Of Me Tabs
Barricade Ukulele
Better Luck Next Time Ukulele
I Want You To Know Ukulele


Song lyrics



↑ Back to top | Tablatures and chords are parodies/interpretations of the original songs. You may use it for private study, scholarship, research or language learning purposes only
© 2014 AZChords.com Contact us | Privacy policy | DMCA | Add/correct tabs | Request tabs | Top 50 tabs