>
 >
You Can Shake The Mountains

You Can Shake The Mountains Guitar Tabs

Lifehouse - You Can Shake The Mountains chords, tabs, tablatures, lyrics

Guitar lessons | Add/correct | Request | Top 50 tabs Artists:  A B C D E F G H I J K L M N O P Q R S T U V W X Y Z 0-9

You Can Shake The Mountains Guitar Tabs – Lifehouse

CD, Sheet music, Poster

Do you like You Can Shake The Mountains? Share with your friends now
TabsTabs v2
---------------------------------------

this is a rare track of lifehouse. they were known as blyss when they recorded this.
one of the best lifehouse songs they ever made imo.
hope you enjoy.


Intro/Verses
------------
  
e|---------------------------|---------------------------|
B|---3-----3-----3-----5-----|--7-----7-----8-----5------|
G|------2-----2-----2-----6--|-----7-----7-----9-----6---|
D|---------------------------|---------------------------|
A|---2-----------------4-----|--5-----------7-----4------|
E|---------------------------|---------------------------|

e|---------------------------|----------------------------|
B|---3-----3-----3-----------|----------------------2-----|
G|------2-----2-----2--2-----|--2/4-----4-----4--------2--|
D|------------------------0--|-------5-----5-----5--------| 
A|---2-----------------------|----------------------0-----|
E|---------------------2-----|--2/3-----------------------|
                                                      
e|---------------------------|------------------------------|
B|---3-----3-----3-----5-----|--7-----7-----8-----5----h7p5-|
G|------2-----2-----2-----6--|-----7-----7-----9-----6------|
D|---------------------------|------------------------------|
A|---2-----------------4-----|--5-----------7-----4---------|
E|---------------------------|------------------------------|

e|---------------------------|----------------------------|
B|---3-----3-----3-----------|----------------------2-----|
G|------2-----2-----2--2-----|--2/4-----4-----4--------2--|
D|------------------------0--|-------5-----5-----5--------| 
A|---2-----------------------|----------------------0-----|
E|---------------------2-----|--2/3-----------------------|

e|---------------------------|--------------------------|
B|---3-----3-----5-----5-----|--7-----5-----3-----2-----|
G|------2-----2-----6-----6--|-----7-----6-----2-----2--|
D|---------------------------|--------------------------|
A|---2-----------4-----------|--5-----4-----2-----0-----|
E|---------------------------|--------------------------|

e|---------------------------|--------------------------|
B|---------------------------|--------------2-----2-----|
G|---4-----4-----4-----2-----|--4-----4--------2-----2--|
D|------5-----5-----5-----0--|-----5-----5--------------|
A|---------------------------|--------------0-----------|
E|---3-----------------2-----|--3-----------------------|


Chorus
------

(gtar 2 can strum chords while gtr 1 picks)

    Dsus        G                  Bm         A
e|--------0---------------0-----|-------2---------------0------|
B|-----------2---------3-----3--|----------3---------2-----2--*|
G|------3------------0----------|------------------2----------*|
D|---0-------------0------------|-----4----------2------------*|
A|------------------------------|--2----------0---------------*|
E|--------------3---------------|------------------------------| (x4)
   and you...                 ...can
   shake...                 ...mountains with a whisper
   and you...              ...you speak
   and I...                ...fall at your    feet

     G
e|-------------2-----------|------------2----------|
B|--------3-------3--------|-------3------3--------|
G|-----------0------0---0--|----------0-----0---0--|
D|------0-------------0----|-----0------------0----|
A|-------------------------|-----------------------|
E|---3---------------------|--3--------------------|
  again...  
(start intro/verse again after this)


thats it mate. listen to song and play parts at appropriate times.

************************
kid©2007™
song goes out to B.O.B.





Comments


Popular Lifehouse tabs & chords
Aftermath Chords
Am I Ever Gonna Find Out Chords
Bridges Chords
Days Go By 1 Chords
Halfway Gone 2 Chords
Quasimodo Chords
Between The Raindrops 2 Tabs
Hanging By A Moment Tabs
Joshua Tabs
Nerve Damage Intro Tabs


Song lyrics



↑ Back to top | Tablatures and chords are parodies/interpretations of the original songs. You may use it for private study, scholarship, research or language learning purposes only
© 2014 AZChords.com Contact us | Privacy policy | DMCA | Add/correct tabs | Request tabs | Top 50 tabs