>
 >
Spin

Spin Guitar Tabs

Lifehouse - Spin chords, tabs, tablatures, lyrics

Guitar lessons | Add/correct | Request | Top 50 tabs Artists:  A B C D E F G H I J K L M N O P Q R S T U V W X Y Z 0-9

Spin Guitar Tabs – Lifehouse

CD, Sheet music, Poster

Do you like Spin? Share with your friends now
Bass TabsBass Tabs v2ChordsChords v2TabsTabs v2Tabs v3Tabs v4Ukulele
Intro x1
     1   &  2  &  3  &  4  &     1  &  2  &  3  &  4  &
eb|---------------------------|-------------------------|
Bb|---------------------------|-------------------------|
Gb|---------------------------|-------------------------|
Db|---------------------------|-------------------------|
Ab|---9---9--9--9--9--9--9--9-|--9--9--9-11-11-11--9--9-|
Eb|-2/10-10-10-10-10-10-10-10-|-10-10-10-10-10-10-10-10-|
  1  &  2  &  3  &  4  &   1  &  2  &  3  &  4  &
|------------------------|------------------------|
|------------------------|------------------------|
|------------------------|------------------------|
|------------------------|----------5--5--5--4--4-|
|-5--5--5--5--5--5--5--5-|-7--7--7--7--7--7--7--7-|
|-7--7--7--7--7--7--7--7-|-7--7--7--7--7--7--7--7-|
  1  &  2  &  3  &  4  &   1  &  2  &  3  &  4  &
|------------------------|------------------------|
|------------------------|------------------------|
|------------------------|------------------------|
|------------------------|------------------------|
|-2--2--2--2--2--2--2--2-|-2--2--2--2--2--2--2--2-|
|-0--0--0--0--0--0--0--0-|-0--0--0--0--0--0--0--0-|
Verse x1
  Why would I chase your   shadow    all       my
|------------------------|------------------------|
|------------------------|------------------------|
|------------------------|------------------------|
|------------------------|------------------------|
|--9--9--9--9--9--9--9--9|--9--9--9--9--9--9--9--9|
|-10-10-10-10-10-10-10-10|-10-10-10-10-10-10-10-10|
 life?              than   be    afraid      of my 
|------------------------|------------------------|
|------------------------|------------------------|
|------------------------|------------------------|
|------------------------|----------5--5--5--4--4-|
|-5--5--5--5--5--5--5--5-|-7--7--7--7--7--7--7--7-|
|-7--7--7--7--7--7--7--7-|-7--7--7--7--7--7--7--7-|
 own                I'd    rather     be    with 
|------------------------|------------------------|
|------------------------|------------------------|
|------------------------|------------------------|
|------------------------|------------------------|
|-2--2--2--2--2--2--2--2-|-2--2--2--2--2--2--2--2-|
|-0--0--0--0--0--0--0--0-|-0--0--0--0--0--0--0--0-|
 you                       I'd     rather     not
|------------------------|------------------------|
|------------------------|------------------------|
|------------------------|------------------------|
|------------------------|------------------------|
|--9--9--9--9--9--9--9--9|--9--9--9--9--9--9--9--9|
|-10-10-10-10-10-10-10-10|-10-10-10-10-10-10-10-10|
 know                      where I'll be and
|------------------------|------------------------|
|------------------------|------------------------|
|------------------------|------------------------|
|------------------------|------------------------|
|-5--5--5--5--5--5--5--5-|-5--5--5--5--5--5--5--5-|
|-7--7--7--7--7--7--7--7-|-7--7--7--7--7--7--7--7-|
 you and all the           comforts that I
|------------------------|------------------------|
|------------------------|------------------------|
|------------------------|------------------------|
|-2--2--2--2--2--2--2--2-|-4--4--4--4--4--4--4--4-|
|-2--2--2--2--2--2--2--2-|-4--4--4--4--4--4--4--4-|
|-0--0--0--0--0--0--0--0-|-2--2--2--2--2--2--2--2-|
  know
|------------------------|------------------------|
|------------------------|------------------------|
|------------------------|------------------------|
|-5--5--5--5--5--5--5--5-|-5--5--5--5--5--5--5--5-|
|-5--5--5--5--5--5--5--5-|-5--5--5--5--5--5--5--5-|
|-3--3--3--3--3--3--3--3-|-3--3--3--3--3--3--3--3-|






Chorus x2
                When the   world   keeps  spinning
|------------------------|------------------------|
|------------------------|------------------------|
|-7--7--7--7--7--7--7--7-|-7--7--7--7--7--7--7--7-|
|-7--7--7--7--7--7--7--7-|-7--7--7--7--7--7--7--7-|
|-5--5--5--5--5--5--5--5-|-5--5--5--5--5--5--5--5-|
|------------------------|------------------------|
 round                     my   world's u   pside
|------------------------|------------------------|
|------------------------|------------------------|
|-4--4--4--4--4--4--4--4-|-4--4--4--4--4--4--4--4-|
|-4--4--4--4--4--4--4--4-|-4--4--4--4--4--4--4--4-|
|-2--2--2--2--2--2--2--2-|-2--2--2--2--2--2--2--2-|
|------------------------|------------------------|
 down and I          -I     wouldn't change a
|------------------------|------------------------|
|------------------------|------------------------|
|------------------------|------------------------|
|-2--2--2--2--2--2--2--2-|-4--4--4--4--4--4--4--4-|
|-2--2--2--2--2--2--2--2-|-4--4--4--4--4--4--4--4-|
|-0--0--0--0--0--0--0--0-|-2--2--2--2--2--2--2--2-|
 thing
|------------------------|------------------------|
|------------------------|------------------------|
|------------------------|------------------------|
|-5--5--5--5--5--5--5--5-|-5--5--5--5--5--5--5--5-|
|-5--5--5--5--5--5--5--5-|-5--5--5--5--5--5--5--5-|
|-3--3--3--3--3--3--3--3-|-3--3--3--3--3--3--3--3-|

Verse x1
Chorus x1

Interlude x1
|-10------10--14----12---|--10-------10--14----12-|
|---10--11-------13------|----10--11-------13-----|
|------------------------|------------------------|
|------------------------|------------------------|
|------------------------|------------------------|
|------------------------|------------------------|

|10-----10-14-17-18-15---|-10------10-14-17-18-15-|
|--10-11--------------11-|---10--11---------------|
|------------------------|------------------------|
|------------------------|------------------------|
|------------------------|------------------------|
|------------------------|------------------------|

|------------------------|------------------------|------------------------|
|--------------------play this line twice on the repeat-------x2-----------|
|------------------------|------------------------|------------------------|
|-2--2--2--2--2--2--2--2-|-4--4--4--4--4--4--4--4-|-5--5--5--5--5--5--5--5-|
|-2--2--2--2--2--2--2--2-|-4--4--4--4--4--4--4--4-|-5--5--5--5--5--5--5--5-|
|-0--0--0--0--0--0--0--0-|-2--2--2--2--2--2--2--2-|-3--3--3--3--3--3--3--3-|

Chorus x3





Comments


Popular Lifehouse tabs & chords
Sick Cycle Carousel Bass Tabs
All In All Chords
Come Back Down 2 Chords
Hanging By A Moment 5 Chords
Simon 1 Chords
Anchor Tabs
Breathing Tabs
Sick Cycle Carousel Tabs
Falling Into Grace Ukulele
Somewhere In Between Ukulele


Song lyrics



↑ Back to top | Tablatures and chords are parodies/interpretations of the original songs. You may use it for private study, scholarship, research or language learning purposes only
© 2014 AZChords.com Contact us | Privacy policy | DMCA | Add/correct tabs | Request tabs | Top 50 tabs