» » »

Lifehouse, Spin Tabs (ver.2)

Artists:  A B C D E F G H I J K L M N O P Q R S T U V W X Y Z # 

Spin Tabs (ver.2)

Lifehouse Tabs
 Rating:
4/5 (4 votes)
Spin lessons Tabs too difficult? Try these video lessons and learn fast
                Played with a capo on the first fret.

You can do either bar chords (in which case
you don't need the capo) or open chords. It
really makes no difference.

With capo

Intro:
C(C5)             Am(A5)
/-//////|/-//////|/-//////|/-//////|
Em(E5)            
/-//////|/-//////|

Verse:
C(C5)             Am(A5)
/-//////|/-//////|/-//////|/-//////|
Em(E5)            Am(A5)
/-//////|/-//////|/-//////|/-//////|
Em(E5)   Dm(D5)   Em(E5)   F(F5)
/-//////|/-//////|/-//////|/-//////|////////|

Chorus
C(C5)             Am(A5)
/-//////|/-//////|/-//////|/-//////|
Dm(D5)   Em(E5)   F(F5)
/-//////|/-//////|/-//////|/-//////|
(Repeated)

One of the guitars plays something a little
different at the beginning of the chorus:
C
(with capo)
e|-3---3-3-3-3-3-3-|-3---3-3-3-3-3-3-|
B|-5---6-5-6-5-5-5-|-5---6-5-6-5-5-5-|
G|-5---5-5-5-5-5-5-|-5---5-5-5-5-5-5-|
D|-5---5-5-5-5-5-5-|-5---5-5-5-5-5-5-|
A|-3---3-3-3-3-3-3-|-3---3-3-3-3-3-3-|
E|-----------------|-----------------|
Am
(with capo)
e|-5---5-5-5-5-5-5-|-5---5-5-5-5-5-5-|
B|-5---6-5-6-5-5-5-|-5---6-5-6-5-5-5-|
G|-5---5-5-5-5-5-5-|-5---5-5-5-5-5-5-|
D|-7---7-7-7-7-7-7-|-7---7-7-7-7-7-7-|
A|-7---7-7-7-7-7-7-|-7---7-7-7-7-7-7-|
E|-5---5-5-5-5-5-5-|-5---5-5-5-5-5-5-|



Interlude:
Not sure about the guitar part, but it 
follows the vocals fairly closely.
Vocals go:
(with capo)
e|-------------|-------------|
B|-------------|-------------|
G|-------------|-------------|
D|-------------|----5--6-----|
A|-3--------5--|-7--------8--|
E|----3--4-----|-------------|

Enjoy
            
Submit corrections

comments powered by Disqus
↑ Back to top | Lifehouse Tabs for Spin. Lyrics for acoustic guitar and electric guitar. Tablatures and chords are parodies/interpretations of the original songs. You may use it for private study, scholarship, research or language learning purposes only