>
 >
The Sunbed Song Live

The Sunbed Song Live Bass Tabs

Level 42 - The Sunbed Song Live chords, tabs, tablatures, lyrics

Guitar lessons | Add/correct | Request | Top 50 tabs Artists:  A B C D E F G H I J K L M N O P Q R S T U V W X Y Z 0-9

The Sunbed Song Live Bass Tabs – Level 42

CD, Sheet music, Poster

Do you like The Sunbed Song Live? Share with your friends now
Bass Tabs
well i tab this song from my level 42 live album so sorry if its different than you have 
it but awesome snong!!!!!!

wiat till piano intro
intro
|--6-6-----4-------------|
|----------------4h5-----|
|------4h5---4h5---------|
|--------------------5h7-|
   p p t   p t   p   t

main riff                       Fill
|---------------------|        |-4//6-4---------|
|---------4-5-4-------|        |--------6-4-----|
|--44--77-------------| xheaps |------------6-4-|
| --------------5-6-7-|        |----------------|

Verse
|---11---11//13-11---11---11----9---9//11-9---9---9--|
|----------------------------------------------------|
|-9----9-----------9----9-----8---8---------8---8----| x2
|----------------------------------------------------|

|-------------------------------------------|
|---4---4//6-4---4---4----2---2//4---2---2--|
|-------------------------------------------| x2
|-2---2--------2---2----0---0------0---0----|

main riff                       Fills
|---------------------|        |-4//6-4---------| |--------------------|
|---------4-5-4-------|        |--------6-4-----| |--------------------|
|--44--77-------------| xheaps |------------6-4-| |-44-77--------------|
| --------------5-6-7-|        |----------------| |-------2-3--2-5-6-7-|

Bridge
|---------------------|        |----9------11----9------11-|
|---2-----4---2-----4-|        |-11---11------11---11------|
|-4---4-----4---4-----| xheaps |---------9------------9----| xheaps
|-------2---------2---|        |---------------------------|

scale
|-------------------------------------------------------------------|
|-8888888-8h11-----------    7h9--------------------77--------------|
|--------------11,11-99--7h9-----99-77----99--77-99----99-77----99--|
|--------------------------------------99--------------------99-----|

|----------7-9-12-16--16-14----14------------------------------------|
|---7-9-11------------------16----16-14-16-14----14------------------|
|-9-------------------------------------------16----16-14--------7-7-|
|---------------------------------------------------------16-14------|

main riff (vereation)
|---6---9-------------|   mark king does som crazy ass slapin in that part
|-------------4h5-----|   but am think thats almost it.
|-4---7---------------|
|---------2h3-----5h7-|
  t p t p t   p   t

Bridge
|---------------------|        |----9------11----9------11-|
|---2-----4---2-----4-|        |-11---11------11---11------|
|-4---4-----4---4-----| xheaps |---------9------------9----| xheaps
|-------2---------2---|        |---------------------------|

outro
|-------------------------------------11-|
|-88888888-88h11,11-------------------11-|
|--------------------11,11h88-77h99---9--|
|----------------------------------------|

and thats it :D enjoy





Comments


Popular Level 42 tabs & chords
Lessons In Love Bass Tabs
The Sun Goes Down Bass Tabs
Tracie Intro Bass Tabs
It's Over Chords
Something About You Chords
Something About You 1 Chords
World Machine Chords
Running In The Family Intro Tabs
Heaven In My Hands Ukulele
Its Over Ukulele


Song lyrics



↑ Back to top | Tablatures and chords are parodies/interpretations of the original songs. You may use it for private study, scholarship, research or language learning purposes only
© 2014 AZChords.com Contact us | Privacy policy | DMCA | Add/correct tabs | Request tabs | Top 50 tabs