» » »

Level 42, Love Games Bass tabs (ver.1)

Artists:  A B C D E F G H I J K L M N O P Q R S T U V W X Y Z # 

Love Games Bass tabs (ver.1)

Level 42 Tabs
Rating:
5/5 (4 votes)
Love Games lessons Tabs too difficult? Try these video lessons and learn fast
                Copyright:


Standard Bass Tuning: Standard 4 string,


h - Hammer on
s - Slide
\ - Slide Down
x - Dead Note/Scratch

PLEASE READ:
THE INTRO TIMING IS WRONG! THE SCRATCH'S AND OPEN E NOTES ARE WRONG FOR TIMING. I have
hard to get the timing right, I will update the tab. Not now though I am busy I don't 
get lots of time to tab out stuff.

I am fully aware that Mark King plays the PART B on other strings, It shouldn't matter
they are still the same notes. If you really want to play it like him, then he starts on
7th fret of E and plays on E and A strings.


------------------------
Update 1.1:
Interlude riff removed
Text Updated
-------------------------
UPDATE: 1.2 (25th September, Posted 1:19pm GMT)
Text updated.
Slight tweaks to the PART B.
Slap and Pop added to PART C.
Bars made shorter in PART A
--------------------------

I might release a Version 2 with better timing and more changes to the riff, but no time
it as now.


On the intro slap all the notes other than the G string notes, which you will pop.

Main Riff:

-------------------------7------|
--------------------------------|
---------------------------x-5h7|
--0-x-0-x-x-0-x-x-0-x-x---------|

---------------------------------|
---------------------------------|
----------------------------5h7--|
--0-x-0-x-x-0-x-x-0-x-x-5h7------|

-------------------------7---7h9--|
-----------------------x---x------|
----------------------------------|
--0-x-0-x-x-0-x-x-0---------------|

-------------------------7------|
--------------------------------|
---------------------------x-5h7|
--0-x-0-x-x-0-x-x-0-x-x---------|


Part B:
--------------------------------|----------------------------------|
----------------------4---------|--------------------------4\------|
--2--x-x-4--x-x---4s5----x-x-2--|----2--x-4---4---4s5--x-x-----x-x-|
--------------------------------|----------------------------------|

--------------------------------|--------------------------------|
----------------------2---------|--------------------------2\----|
--0--x-x-2--x-x-2s-4------x-x-0-|----0--x-2---2---2s4-x-x--------|
--------------------------------|--------------------------------|


Part C:

-------------------------------|----------------------------|
-------------------------------|----------------------------|
---3--3------0---3--3------0-3-|--2--2-----3-2-0---0-2---3--|
-----------3---3---------3-----|----------------------------|

---------------------------|------------------3--5-3-2-0-|
---------------------------|------3-3-------3------------|
------3-3---------3-3-0-2--|--1---------1-1--------------|
--1---------1-1------------|-----------------------------|

_________________________________S___P__S__P__S__P__S__S-S_
------------------8--10-8s7----|-----5-----6-----7---------|
------8-8-------8-----------10-|---------------------------|
--6---------6-6----------------|--3-----4-----5-----6--7-7-|
-------------------------------|---------------------------|
            
Submit corrections

comments powered by Disqus
↑ Back to top | Level 42 Bass for Love Games. Lyrics for acoustic guitar and electric guitar. Tablatures and chords are parodies/interpretations of the original songs. You may use it for private study, scholarship, research or language learning purposes only