» » »

The Ocean Tabs (ver.7)

Artists:  A B C D E F G H I J K L M N O P Q R S T U V W X Y Z # 

The Ocean Tabs (ver.7)

Led Zeppelin
Rating:
0/5 (0 votes)

Hard to play? Try these video lessons and learn fast.
                -------------------------------------------------------------------------------
-------------------------------------------------------------------------------
I remember that there was a pretty good tab of this song on here, but It must have been taken down
or something... all the other ones are incomplete. This is how I learned to play it. Here we go!

Tuning: standard!
Bonham: We've done four already but now we're steady and then they went, one, two, three, four!

e|---------------------------------------------------------------------------|
B|---------------------------------------------------------------------------|
G|---------------------------------------------------------------------------| x4
D|-----7h5--7h5--5--------------------5-----------7---------7----------------|
A|------------------7-----------5h7--------5h7---------4--------5--7---------|
E|---------------------8~----------------------------------------------------|

e|---------------------------------------------------------------------------|
B|---------------------------------------------------------------------------|
G|----7-7-7-7---5-5-5-5-----------7-7-7-7------------------------------------|
D|----7-7-7-7---5-5-5-5---7-5-7---7-7-7-7------------------------------------|
A|----5-5-5-5---3-3-3-3---7-5-7---5-5-5-5------------------------------------|
E|------------------------5-3-5----------------------------------------------|
     Singing in the sunshine, laughing in the rain

e|---------------------------------------------------------------------------|
B|---------------------------------------------------------------------------|
G|----7-7-7-7---5-5-5-5-----------7-7-7-7------------------------------------|
D|----7-7-7-7---5-5-5-5---7-5-7---7-7-7-7------------------------------------|
A|----5-5-5-5---3-3-3-3---7-5-7---5-5-5-5------------------------------------|
E|------------------------5-3-5----------------------------------------------|
     Hitting on the moonshine, rocking in the grain

e|---------------------------------------------------------------------------|
B|---------------------------------------------------------------------------|
G|----7-7-7-7---5-5-5-5-----------7-7-7-7------------------------------------|
D|----7-7-7-7---5-5-5-5---7-5-7---7-7-7-7------------------------------------|
A|----5-5-5-5---3-3-3-3---7-5-7---5-5-5-5------------------------------------|
E|------------------------5-3-5----------------------------------------------|
     Got no time to pack my bag, my foot's outside the door

e|---------------------------------------------------------------------------|
B|---------------------------------------------------------------------------|
G|----7-7-7-7---5-5-5-5-----------7-7-7-7------------------------------------|
D|----7-7-7-7---5-5-5-5---7-5-7---7-7-7-7------------------------------------|
A|----5-5-5-5---3-3-3-3---7-5-7---5-5-5-5------------------------------------|
E|------------------------5-3-5----------------------------------------------| 
     Got a date, I cant be late to the high hopes hailla ball!

e|---------------------------------------------------------------------------|
B|---------------------------------------------------------------------------|
G|--------------------------------5--------7-------7-------------------------|
D|-----7h5--7h5-5-----------5h7------5h7-------4-------5--7------------------|
A|-----------------7---------------------------------------------------------|
E|--------------------8~-----------------------------------------------------|
                         Ah ha!
e|---------------------------------------------------------------------------|
B|---------------------------------------------------------------------------|
G|--------------------------------5--------7-------7-------------------------|
D|-----7h5--7h5-5-----------5h7------5h7-------4-------5--7------------------|
A|-----------------7---------------------------------------------------------|
E|--------------------8~-----------------------------------------------------|
                          Oh oh yeah!
e|---------------------------------------------------------------------------|
B|---------------------------------------------------------------------------|
G|--------------------------------5--------7-------7-------------------------|
D|-----7h5--7h5-5-----------5h7------5h7-------4-------5--7------------------| x2
A|-----------------7---------------------------------------------------------|
E|--------------------8~-----------------------------------------------------|

Singing to an ocean, I can hear the ocean's roar!
Play for free, I play for me and play a whole lot more, more!
Sing about the good things and the sun that lights the day,
I used to sing to the mountains cuz the ocean lost it's way.

solo:
e|-----------------------------------------------------------8---------------|
B|----5-----5---------------------------------------------8-----10-10~-------|
G|----7b9---7b9~--7b9r7--5----------------5-----------/9---------------------|
D|-------------------------5-7-7-------5-----7-7~----------------------------|
A|---------------------------------5h7---------------------------------------|
E|---------------------------------------------------------------------------|

e|--8----------9/14-------------------15-15-15-------------------------------|
B|-----10-10---------9/14\9----15b17-------------15pb17br15--13--------------|
G|---------------------------------------------------------------14----------|
D|---------------------------------------------------------------------------|
A|---------------------------------------------------------------------------|
E|---------------------------------------------------------------------------|

e|-----------5---------------------------------------------------------------|
B|------5-8----8-8~-8-8~--8b10r8h5-------------------------------------------|
G|--/7-------------------------------7-5------------------5---------5--------|
D|----------------------------------------7-7~---------5-----7-7-------7-7---|
A|------------------------------------------------5h7------------------------|
E|---------------------------------------------------------------------------|

e|----------------------------8-------------------15-15-15--------15-15-15---|
B|-------------------------8-----10-10------15b17-----------15b17------------|
G|--5------5----------/9-----------------------------------------------------|
D|-----7-----7-7-------------------------------------------------------------|
A|---------------------------------------------------------------------------|
E|---------------------------------------------------------------------------|

e|----------15-15-15----------15-15-15--|
B|---15b17-------------15b17------------|
G|--------------------------------------|
D|--------------------------------------|
A|--------------------------------------|
E|--------------------------------------|

e|---------------------------------------------------------------14/---------|
B|---10-10-10-10---8--8--8--8---5-3-5---10-10-10-10--------------15/---------|
G|---11-11-11-11---9--9--9--9---6-4-6---11-11-11-11--------------14/---------| x4
D|---12-12-12-12---10-10-10-10--7-5-7---12-12-12-12--------------------------|
A|---x--x--x--x----x--x--x--x---x-x-x---x--x--x--x---------------------------|
E|---10-10-10-10---8--8--8--8---5-3-5---10-10-10-10--------------------------|
      ^right here you use your thumb to play the root note of the chord, and at 
the same time mute the a string

e|-------------------------|
B|-------------------------|
G|-------------------------|
D|------7------------------|
A|---4-----5--7~-----------|
E|-------------------------|

na na, nana na, na, nanana nana na....

sitting round, singing songs till the night turns into day,
Used to sing to the mountains but the mountains washed away,
Now Im singing all my songs to the girl who won my heart,
Now, she's only three years old but its a real fine way to start!

e|---------------------------------------------------------------------------|
B|---------------------------------------------------------------------------|
G|---------------------------------------------------------------------------| x4
D|-----7h5--7h5--5--------------------5-----------7---------7----------------|
A|------------------7-----------5h7--------5h7---------4--------5--7---------|
E|---------------------8~----------------------------------------------------|

solo 2:
(rhythm guitar in the backround is just hammering out a D and an E chord)
(timing is a bit tricky on the solo) 
e|-----10--12b14-12----------------------------------------------------------------|
B|-----10------------12b14-12--10-----12b14-12-10-----12-----10---10-9-------------|
G|---x----------------------------11--------------11-----11----------------9h11p9--|
D|-x-------------------------------------------------------------------11----------|
A|---------------------------------------------------------------------------------|
E|---------------------------------------------------------------------------------|
      ^rake

e|-----10--12b14-12-10----------------------------10-11-12-------------------|
B|-----10---------------12b14-12-10----10--12b14------------12b14--12-10-----|
G|---x------------------------------11---------------------------------------|
D|-x-------------------------------------------------------------------------|
A|---------------------------------------------------------------------------|
E|---------------------------------------------------------------------------|

e|---------------------------------------------------------------------------|
B|-----12----10--12p10-------------------------------------------------------|
G|--11----11------------11b13-11-9----11----9--11b13-11----9~----------------|
D|---------------------------------11----11-------------11-------------------|
A|---------------------------------------------------------------------------|
E|---------------------------------------------------------------------------|

e|---------------------------------------------------------------------------|
B|--------------------------/10-9--------------------------------------------|
G|---/6-4--------------------------11-9--------------------------------------|
D|---------7-6-4-2-----------------------11-9-----9~-------------------------|
A|------------------4-2~----------------------12-----------------------------|
E|---------------------------------------------------------------------------|

e|-------10-----10--12b14-12b14r12-12-10-------------------------------------------------|
B|-------10-----10------------------------12b14-12-10-12--10----12p10--------------------|
G|-----x------x----------------------------------------------11---------11-9----9h11p9~--|
D|---x------x----------------------------------------------------------------11----------|
A|---------------------------------------------------------------------------------------|
E|---------------------------------------------------------------------------------------|

e|------10-----10--12b14-12-10-----------14b16-14-12----15b17-15-------------|
B|------10-----10--------------10--12-14-------------12-----------15b17-15---|
G|----x------x---------------------------------------------------------------|
D|--x------x-----------------------------------------------------------------|
A|---------------------------------------------------------------------------|
E|---------------------------------------------------------------------------|

e|--17-16-----17-16-----17-16-----17-16--------------------------------------|
B|--------17--------17--------17--------17~----------------------------------|
G|---------------------------------------------/6-4--------------------------|
D|--------------------------------------------------7-6--4-2-----------------|
A|------------------------------------------------------------4-2~-----------|
E|---------------------------------------------------------------------------|

e|-----------------------------------------------10h12p10--------------------|
B|--/10-9---------------------------------10-12-----------12p10-12-----------|
G|---------11-9-------------------/11----------------------------------------|
D|---------------11-9------9~---------12-------------------------------------|
A|---------------------12----------------------------------------------------|
E|---------------------------------------------------------------------------|

e|-----------------12h14p12--------------------------10h12p10----------------|
B|-----------12-14----------14-14p12-----------10-12----------12-12p10-------|
G|--11/13-----------------------------13/11----------------------------------| x3
D|--------14--------------------------------12-------------------------------|
A|---------------------------------------------------------------------------|
E|---------------------------------------------------------------------------|

e|------------10----------10----------10----------10-------------------------|
B|---------10----------10----------10----------10----------------------------|
G|---12b14-------12b14-------12b14-------12b14-------------------------------|
D|---------------------------------------------------------------------------|
A|---------------------------------------------------------------------------|
E|---------------------------------------------------------------------------|

e|------------12----------12----------12---16~-------------------------------|
B|---------12----------12----------12----------------------------------------|
G|---14b16-------14b16-------14b16----------------/6-4-----------------------|
D|------------------------------------------------------7-6--4-2-------------|
A|----------------------------------------------------------------4-2~-------|
E|---------------------------------------------------------------------------|

e|------------------------------|
B|---/10-9----------------------|
G|----------11-9----------------|
D|----------------9-11----9~----|
A|---------------------12-------|
E|------------------------------|

************************************

| /   slide up
| \   slide down
| h   hammer-on
| p   pull-off
| ~   vibrato
| +   harmonic
| x   Mute note
| b   Bend
| pb  Pre-bend
| br  Bend release
| pbr Pre-bend release
| brb Bend release bend

************************************
            
Hard to play? Try these video lessons and learn fast. | Correct




comments powered by Disqus
↑ Back to top | Tablatures and chords are parodies/interpretations of the original songs. You may use it for private study, scholarship, research or language learning purposes only