» » »

Led Zeppelin, The Ocean Tabs (ver.3)

Artists:  A B C D E F G H I J K L M N O P Q R S T U V W X Y Z # 

The Ocean Tabs (ver.3)

Led Zeppelin Tabs
 Rating:
4/5 (4 votes)
The Ocean lessons Tabs too difficult? Try these video lessons and learn fast
                Standard Tuning:                                   h= hammer on
            (E A D G B E)                          /= slide to  

Main Riff:
E-----------------X-X-X-----------------------------
B-----------------X-X-X-----------------------------
G-----------------X-X-X-------------------2---------
D--/7-/7--5-------X-X-X------5-----7----------5-----
A-----------7--3--X-X-X--5h7---5h7-----4----5-------
E-----------------X-X-X-----------------------------
    At end of riff, go into first part immediatley, (very fast transition)

Verse:
E--X--X--X--X----X--X--X--X------5--3--5------------
B--7--7--7--7----5--5--5--5------5--3--5------------
G--7--7--7--7----5--5--5--5------6--4--6------------
D--7--7--7--7----5--5--5--5------7--5--7------------
A--5--5--5--5----3--3--3--3------7--5--7------------
E--X--X--X--X----X--X--X--X------5--3--5------------
    (All Barre chords in Verse)

very fun song, enjoy!
            
Submit corrections

comments powered by Disqus
↑ Back to top | Led Zeppelin Tabs for The Ocean. Lyrics for acoustic guitar and electric guitar. Tablatures and chords are parodies/interpretations of the original songs. You may use it for private study, scholarship, research or language learning purposes only