» » »

Led Zeppelin, The Ocean Bass tabs (ver.3)

Artists:  A B C D E F G H I J K L M N O P Q R S T U V W X Y Z # 

The Ocean Bass tabs (ver.3)

Led Zeppelin Tabs
 Rating:
4/5 (4 votes)
The Ocean lessons Tabs too difficult? Try these video lessons and learn fast
1
                Band: Led Zeppelin
Standard Tuning

Intro Riff: 4x
 |1 + 2 + 3 + 4 + 5 + 6 + 7 + 8 + |1 + 2 + 3 + 4 + 5 + 6 + 7 + |
G|--------------------------------|----------------------------|
D|5h7-5h7-5-----------------------|----5-------7-------7-------|
A|----------7---------------------|5-7-----5-7-----4-----5---7-|
E|------------8-------------------|--------------------------^-|
								* omit on 4th x
(0:20) Verse 1: 4x
 |1 + 2 + 3 + 4 + 5 + 6 + 7 + 8 + |1 + 2 + 3 + 4 + 5 + 6 + 7 + 8 + |
G|--------------------------------|--------------------------------|
D|--------------------------------|--------------------------------|
A|5-5-5-5-----3-3-3-3-----0-------|0--3/5-5-5-5--------------------|
E|----------------------------3---|--------------------------------|

(0:50) Chorus: 4x
 |1 + 2 + 3 + 4 + 5 + 6 + 7 + 8 + |1 + 2 + 3 + 4 + 5 + 6 + 7 + |
G|--------------------------------|----------------------------|
D|5h7-5h7-5-----------------------|----5-------7-------7-------|
A|----------7---------------------|5-7-----5-7-----4-----5---7-|
E|------------8---8-8-8-8-8-7-7-7-|----------------------------|
                  PM..............|
            
Submit corrections

comments powered by Disqus
↑ Back to top | Led Zeppelin Bass for The Ocean. Lyrics for acoustic guitar and electric guitar. 1 Tablatures and chords are parodies/interpretations of the original songs. You may use it for private study, scholarship, research or language learning purposes only