» » »

Led Zeppelin, Lemon Song Tabs (ver.1)

Artists:  A B C D E F G H I J K L M N O P Q R S T U V W X Y Z # 

Lemon Song Tabs (ver.1)

Led Zeppelin Tabs
 Rating:
4/5 (4 votes)
Lemon Song lessons Tabs too difficult? Try these video lessons and learn fast
1
                THE LEMON SONG
LED ZEPPELIN

1st lick
e-------------------------------------------------------------------------
b------0----0----0----0----0----0----0-----------------8----x--8\----------
g------------------------------------------------------7----x--7\---------- 
d------------------------------------------------------6----x--6\-----------
a------------------------------------------------------7----x--7\-----------
e------0----0----4----4----5----5----7\-----0------------------------------

2nd lick
e---------------------------------------------------5----x-5----------------------
b---------------------------------------------------5----x-5----------------------
g---------------------------------------------------6----x-6----------------------
d---------------------------------------------------7----x-7----------------------
a---------------4----4----5----5----7\----0---------7-----x-7---------------------
e----5----5-----------------------------------------5-----x-5------------3------

3rd lick
e-----------------------------------------------------
b-----------------------3----------------------2----
g-----------------2----------------------0-----------
d-----------1----------------------2-----------------
a-----2----------------------0-----------------------
e------------------------------------------------------

4th lick
e----------12----------12-----12p--10---------------------------------
b---------------------------------------------12p---10--h12------------
g---------------------------------------------------------------------12---
d----------------------------------------------------------------------------
a----------------------------------------------------------------------------
e----0----------------------------------------------------------------------

5th lick
e----------------------------------------------------------------------------
b-----------------------------8--------------------------------------------
g----9p----7--h8---h9-------9----7------------------------7---------
d---------------------------------------------7---h8----9--------9-----
a--------------------------------------------------------------------------
e--------------------------------------------------------------------------

chords

    E  A  B
e--7   5  7
b--9   5  7
g--9   6  8
d--9   7  9
a--7   7  9
e---   5  7

listen to the song for rythm but the chord progression is as follows:
E  A  E  B  A  E  B

Order fo song
Intro
1st lick-2x

1st lick- 2x
2nd lick- 1x
1st lick- 1x
3rd lick- 1x
4th lick- 1x
5th lick- 1x
Repeat as necessary

5th lick- 1x
chord progression- 2x

I should have quit you, long time ago. (X2) 
I wouldn't be here, my children, down on this killin' floor. 

I should have listened, baby, to my second mind (X2) 
Everytime I go away and leave you, darling, you send me the blues way down the line. 

Said, people worry I can't keep you satisfied. 
Let me tell you baby, you ain't nothin but a two-bit, no-good jive. 

Went to sleep last night, worked as hard as I can, 
Bring home my money, you take my money, give it to another man. 
I should have quit you, baby, such a long time ago. 
I wouldn't be here with all my troubles, down on this killing floor. 

Squeeze me baby, till the juice runs down my leg. (X2) 
The way you squeeze my lemon, I'm gonna fall right out of bed. 

I'm gonna leave my children down on this killing floor.
            
Submit corrections

comments powered by Disqus
↑ Back to top | Led Zeppelin Tabs for Lemon Song. Lyrics for acoustic guitar and electric guitar. 1 Tablatures and chords are parodies/interpretations of the original songs. You may use it for private study, scholarship, research or language learning purposes only