>
 >
The Lemon Song

The Lemon Song Bass Tabs

Led Zeppelin - The Lemon Song chords, tabs, tablatures, lyrics

Guitar lessons | Add/correct | Request | Top 50 tabs Artists:  A B C D E F G H I J K L M N O P Q R S T U V W X Y Z 0-9

The Lemon Song Bass Tabs – Led Zeppelin

CD, Sheet music, Poster

Do you like The Lemon Song? Share with your friends now
Bass TabsDrum TabsTabsTabs v2Tabs v3
Lemon Song
Led Zeppelin

G|--7---7--7-------------------------------------------------7-----|
D|----x---------------------------------------------------9-----9--|
A|-------------7--7------------------------7---x--7----------------|
E|-------------------4--4--5--5--6--6--7---------------------------|


G|-----------------------------------9------------7-----7--7-------|
D|--------------------------------------------9------9----------9--|
A|---7--7-------------------------7-----7--------------------------|
E|---------x--4--4--5--5--6--7-------------------------------------|


G|--------------------------------------------9--7-----------------|
D|--------------------------------------------------9--0--7--9-----|
A|---7--7------------------------7---7--7--------------------------|
E|---------x--4--4--5--5--6--7-------------------------------------|


G|-----------------------------------9----------------9------------|
D|----------------------------------------------8--9------9--------|
A|---7--7------------------------7------7--------------------------|
E|---------x--4--4--5--5--6--7-------------------------------------|


G|-----------------------------------------------------------------|
D|---7---------------------------7------7-------5------------------|
A|---------0--4--4--5--5--6--7-------------------------5-----6-----|
E|-----------------------------------------------------------------|

G|-----------------------------9-----------------------------------|
D|----------6--6--7--7--8--9------9------------6----7----8---------|
A|---7---7---------------------------7-----7-----------------------|
E|--------------------------------------7--------------------------|

G|---------------11------------------------------------------------|
D|---9---9--x-9------9-----------------------5----7--5-------------|
A|----------------------9--------4--5--6--7-----7-------7--5--6----|
E|-------------------------7--5------------------------------------|

0:50 :

G|-------9----9--7-------------------------------------------------|
D|-----------------9--x--7--9--5h6--------------5------------------|
A|---7------------------------------7--5--6--7-----7--5-------5----|
E|------------------------------------------------------5-6-7---7--|

G|----------------------------------------------9-----9--7---------|
D|---------------------------------------------------------9-------|
A|---------------------------------x--5--6--7------7---------------|
E|---0---0---4---x--5--x--5--6--7-----------------------------7----|

G|-----------------------------------------------------------------|
D|-----------------------------------------------------------------|
A|---7-------------------------7--5---7--5---7--5--------7---------|
E|-------0---4--4--5--5--6--7-------7------7-------7--6-----6------|

G|-----------------------------------------------------------------|
D|-----------------------------7-----------------7-----------------|
A|---------4---4---5--5--6--7-----7-----------4-----5---6----------|
E|---5---5---------------------------5--5--5-----------------------|

G|---------------------------------9-------------------------------|
D|---------6---6---7---7--x--8--9-----------x--6--7--8-------------|
A|---7---7------------------------------7--------------------------|
E|-----------------------------------------------------------------|

G|----------12/13--11----------------9----11-9---------------5-----|
D|---9--9-------------13-11-9-x-9/11---11------11-9-7--7-x-5---5---|
A|---------------------------------------------------------------x-|
E|-----------------------------------------------------------------|


G|-------9---9---9--7----------------------------------------------|
D|---------------------9--7--9--5/6\-------------------------------|
A|---7-----------------------------------------------5----6--------|
e|-----------------------------------------------------------------|


Up Tempo (1:27):

G|-----------------------------------------------------------------|
D|----------6--x-7--x-8--9-------------6--6--7--7---x-8--9----------|
A|---7--7-------------------5---7--7-------------------------------|
E|-----------------------------------------------------------------|


G|--------------------------7--8--9--9--7--x-----------------------|
D|-------x--6---7--7--8--9-------------------9---x--7--6-----------|
A|---7----------------------------------------------------7--------|
E|-----------------------------------------------------------7-----|


G|-----------------------------------------------------------------|
D|------------------------------5--7--7--5-------------------------|
A|-----------4---x-5---x-6--7----------------x--7--6--5--4--5------|
E|---5---5---------------------------------------------------------|


G|------------------------------7--9--9--7-------------------------|
D|-----------6---6-7---x-8--9----------------x-9---x--7--6--7------|
A|---7---7---------------------------------------------------------|
E|-----------------------------------------------------------------|


G|-----------------------------------------------------------------|
D|---9---7---------------------------------------------------------|
A|----------9---7---5---7-------------x--4--x--5--x--5--6--7-------|
E|--------------------------5--7---5-------------------------------|


G|-----------------------------------------6--x-7--x-7--8--8--8----|
D|-----------6--6--7--7--7--8--8--8--9--9--------------------------|
A|---7---7---------------------------------------------------------|
E|-----------------------------------------------------------------|


G|---9---9---7-----------------------------------------------------|
D|--------------x--9---x--7--5h6-----------------------------------|
A|---------------------------------7---7---5-----------------------|
E|---------------------------------------------x--7--5---3h4--0----|


G|-----------------------------------------------------------------|
D|---------------------------------------5--x--5--6--x--6--7--7----|
A|---------------------------------7--7--------------------------7-|
E|----0---0---4--x--5--x--5--6--7----------------------------------|


G|-----------------------------------------------------------------|
D|----7---7---5-----------------------------------------------5h6--|
A|----------------x---7---x--5-3h4-----------4--x--5--x--6--7------|
E|----------------------------------5--5--5------------------------|


G|---------------------------------7--9--9--x-7--------------------|
D|------------6--x--7--x--8--x--9----------------9--x--6--7--8-----|
A|----7---7--------------------------------------------------------|
E|-----------------------------------------------------------------|


G|------------8---x-9---x-10-11-----------6--x--7--x--8--9---------|
D|----9---9----------------------9--7--7--------------------7------|
A|-----------------------------------------------------------------|
E|-----------------------------------------------------------------|


G|--------9--7--x-6--6--5---x--------------------------------------|
D|----9------------------------9--9--7--7--7--8--9-----------------|
A|-----------------------------------------------------------------|
E|---------------------------------------------------7-------------|


G|---------------------------------9---7---------------------------|
D|------------6---x--7---x--8---9---------9-----6--6---7---9-------|
A|----7---7----------------------------------7---------------------|
E|-----------------------------------------------------------------|


G|----9------------------------------------------------------------|
D|-------9------6---7---8------------------------------------------|
A|----------7------------------------------------------------------|
E|----------------------------0---4---4---5---5---6---7------------|


G|-----------------------------------------------------------------|
D|------------------------------------7--7---x--5------------------|
A|-------------4---4---5---5---6---7---------------x-7--x--4-5-6---|
E|-----5---5-------------------------------------------------------|


G|---------------------------------9--x-9-----9----7----9----------|
D|-------------6---6---7--7--8--9----------7----8----9-------------|
A|-----7---7-------------------------------------------------------|
E|-----------------------------------------------------------------|


G|-----------------------------------------------------------------|
D|-----9---9---7---x-----------------------------------------------|
A|--------------------9---x---7--5------------4-x-5-x-5---6--6-----|
E|----------------------------------7---5--5-----------------------|


G|-----------------------------------------------------------------|
D|-------------6--6---x-7--7---8--8--9-----------------------------|
A|-----7---7-------------------------------------------4--5--6-----|
E|--------------------------------------7--7--7--7--7--------------|


Slower Tempo (2:30):

G|-----------------------------------------------------9--7--------|
D|-------------6---6--6--7--7--8--9--------------------------9-----|
A|-----7---7-------------------------x--7---x--7-------------------|
E|-----------------------------------------------------------------|


G|----------------------------9--8--7------------------------------|
D|-------x--6--6--7--7--8--9-----------9--x--7--6---------------5/-|
A|----7-------------------------------------------7--8--5--6--7----|
E|-----------------------------------------------------------------|


G|-----------------------------------------------------------------|
D|-------------------------5--6--7---------------------------------|
A|----0---4---x-5--x-6--7-------------------4---5---6--------------|
E|------------------------------------5----------------------------|


G|-----------------------------9-----------------------------------|
D|--------x--6--6--7--7--8--9-----------6----7----8----------------|
A|----7----------------------------7-------------------------------|
E|-----------------------------------------------------------------|


G|-----9-----------------------------------------------------------|
D|---9---9--9--9--9--x--9---------------------------7---7----5---7-|
A|-------------------------9----9-------------x--4----5---5h7--7---|
E|----------------------------7---7--6--5--5-----------------------|


"Now take it down a little..." (2:56):

G|---------9-9--9--7-----------------------------------------------|
D|-------x-----------9--7--9-5h6------------5----------------------|
A|---7----------------------------7--5-6-7----7--5--------5--------|
E|-------------------------------------------------5h6-7-----5-----|


G|-------------------------------9---7-----------------7-----------|
D|---------6---7--8--9-------------------0--7--8--9----------------|
A|---7-----------------9----7--------------------------------------|
E|-----------------------7-----------------------------------------|


G|--------------------------------9--8--7--------------------------|
D|-------0--6--6--7---7--8--9--0-----------0--9--0-7--6------------|
A|---7--------------------------------------------------7-0----7---|
E|-----------------------------------------------------------7---6-|


G|-----------------------------------------------------------------|
D|----------------------------0--5--6--7-----------------7---------|
A|---0---0--4--x--5--0--6--7-------------7---7----0--4------5--6---|
E|-----------------------------------------5---5-------------------|


G|------------------------------------------------------9----------|
D|-------0--6--6-6-7--7--7--8--8--8--9--------------0-6---7--0--8--|
A|---7---------------------------------7--5-0-7--7-----------------|
E|-----------------------------------------------------------------|


G|-------------11--------------------------------------------------|
D|---9---9--9------9-------9-----9---7------------4-5-6-7----------|
A|--------------------0--9----9---------0-4-5-6-7---------4-4-5-6--|
E|-----------------------------------------------------------------|


G|-------9---7-----------------------------------------------------|
D|--------------9--7--5--------------------------------------------|
A|---7--------------------7--5-----7-7--5------------------5--6----|
E|------------------------------7---------7--5--3--5----/7---------|

				   N.H.
G|-------9--9--7---------------------------12-9--------------------|
D|----------------9--7--0--5h6------(5)---------12--9-7-8--9-------|
A|---7--------------------------7----------------------------------|
E|-----------------------------------------------------------------|


G|-----------------------------------------9--7--------------------|
D|-----------------------------------------------9--7-0-5--7-------|
A|---7--------5--5------------------7---7--------------------------|
E|-------------------7--5--3--5--7---------------------------------|


G|-----------------------------------------------------------------|
D|-------------------------4-5-6-7-------------------------5-6-7-9-|
A|---0-------4----5--6--7-----------0--4--4--5-5-6--6-7--7---------|
E|-----------------------------------------------------------------|


G|--------9---9--7-------------------------------------------------|
D|------------------9-7-x--5--6-------------x-6--7--8--9------7----|
A|---7---------------------------7--5--6--7---------------x-7------|
E|-----------------------------------------------------------------|


G|----------11-----------------------9-----------------------------|
D|---9--9-------9--------9----9--7-7----7----------------5---7-----|
A|-----------------9----9--9--------------7---4--5--6--7---7-------|
E|--------------------7---------------------5----------------------|


G|--------9--7-----------------------------------------------------|
D|--------------9--7--5--------------------------------------------|
A|---7-------------------7--5----------------------------0--2------|
E|-----------------------------7---5--3--2--1--0-1--2--3-----------|


G|-----------------------------------9---9--7--7--7----------------|
D|-----------0--6--0--7---7--8h9---------------------9--7----------|
A|---7---7------------------------7------------------------7-------|
E|-----------------------------------------------------------------|


G|---------------------------------7--9----------------------------|
D|---------6--6--7--7--8--8--9--9----------------------------------|
A|---7--7-------------------------------7--7--5--5--5--------------|
E|----------------------------------------------------7--7-5-0-3-4-|


G|-----------------------------------------------------------------|
D|---------------------------5--6--7-------------------------------|
A|-----------4---4--5---6--7----------7-----------0--4--5--6-------|
E|---5--5--5-----------------------------5--0-5--------------------|


G|------------------------7--8--9--12-9---9-9-12-9----9--9---------|
D|------x--6--6--7--8--9---------------12----------12------12-9----|
A|---7----------------------------------------------------------12-|
E|-----------------------------------------------------------------|


G|-----------------------------------------------------9---7-------|
D|---9--------------7--8--9------------------------5----------9----|
A|------9-------9-----------9--6-------------5-6-7---7----------5--|
E|---------7----------------------7--x-5-6-7-----------------------|


G|-------------9---------------------------------------------------|
D|------9/11-------------9\----------------------------------------|
A|---7------------10/11-----10/11---------7--x-5-------------------|
E|----------------------------------7--9----------7--5--3h4--------|


G|-----------------------------------------------7-----9-----------|
D|-----------------------------------------------------------------|
A|-------7--7--5--------------------------7--7---------------------|
E|---0------------7--5--2--3--4--0--0--5---------------------------|


G|----------------------------------9--------9---------------------|
D|-------------------------------------------------7-8-------------|
A|---7-----7--7--5-------------x-7-----x-7------7------------------|
E|-------7-----------7--5--0----------------------------0----------|


G|--------------------------------------------------7--6-----------|
D|-----------------------4--5--6--7-------------7---------9--7--x--|
A|--------x--4--5--6---7-------------4--7-----7---7----------------|
E|----5------------------------------------5-----------------------|


G|-------------9--9--7---------------------------------------------|
D|----9-----------------9--7--6h7--6h7--6-7-6----------------------|
A|-------7--7----------------------------------7--5-x-7------------|
E|------------------------------------------------------4--4-5--0--|


G|----------------------11-------------------7-----11--9-----------|
D|-------------9/11h13-----13--11\9--7--9h11----11--------11-----9-|
A|-------9h11------------------------------------------------9h11--|
E|----7------------------------------------------------------------|


G|--------9---7----------------------------------------------------|
D|----------------9---7--5h6---------------------------------------|
A|----7-------------------------7--5-------------------------------|
E|------------------------------------7--5--3--2--0--0--4--7-------|


G|-----------9--7----------------------------7--9------------------|
D|-----------------9--7-------------6--7--9------------------------|
A|----7------------------7---7---7---------------------------------|
E|-----------------------------------------------------------------|


G|----------9--9--9--9--9--9--7------------------------------------|
D|-------------------------------9---------4-4-4-4-5-5-5-5-6-6-6-6-|
A|----7----------------------------7-7-7-7-------------------------|
E|-----------------------------------------------------------------|


G|----------------5/6----------------------------------------------|
D|-----7--5-------------7--5--7--5-------------------------5-------|
A|------------7--------------------7--0--0--0--4--5--6-0-7--7-5--6-|
E|-----------------------------------------------------------------|


G|--------9--7-----------------------------------------------------|
D|-------------9--7--5h6-------------5-----7-5---------------------|
A|----7------------------7--5--6--7---7-5-----5-5-6-7-5-5-6-7------|
E|-----------------------------------------------------------5-5-6-|


G|-------------------11--------------------------------------------|
D|----------------9------9----------------------2------------------|
A|-------------9------------9----9----------2h4---4-2-----4--------|
E|----7---7--------------------7---7--6--5------------5-5----------|


G|-----------------------------------------------------------------|
D|------------6--6--7--7--8--8--9--9-------------------------------|
A|----7---7--------------------------------------------------------|
E|------------------------------------------/7---------------------|


Up Tempo (5:36):

G|--------------------------------------------------------7--------|
D|----------6--x--7--x--8--9------------6--6-7--x--8--9------------|
A|----7--7------------------------7--7-----------------------------|
E|-----------------------------7-----------------------------------|


G|----9---9--------------------------------------------------------|
D|-------------x--9--x--7--5h6-------------------------------------|
A|-------------------------------7--7--5---------------------------|
E|----------------------------------------0--7--0--5--3--4---------|


G|-----------------------------------------------------------------|
D|------------------------------5--7--7--5-------------------------|
A|------------4--x--5--x--6--7--------------x--7--x--5--4--5-------|
E|----5---5--------------------------------------------------------|


G|---------------------------7--9--9--7----------------------------|
D|----------6--x-7--x--8--9--------------0--9--x--7--6--7----------|
A|----7--7---------------------------------------------------------|
E|-----------------------------------------------------------------|


G|-----------8--8-9--9-10--11--------------6--x-7-x--7--8--8-------|
D|----9---9--------------------x--9--7--7--------------------------|
A|-----------------------------------------------------------------|
E|-----------------------------------------------------------------|


G|----9--9--7--7--7-6--6--5--5-5--x--------------------------------|
D|-----------------------------------9--9--8-8--8--7--7--8--9------|
A|-----------------------------------------------------------------|
E|-----------------------------------------------------------------|


G|-----------------------------------------------------------------|
D|-----------------------------------------------------------------|
A|----7--7--5------------------------------------------------------|
E|-------------0-7--x-5--3h4--0--0--4--x--5--x--5--6--7------------|


G|---------------------------7--9--9--9--7-------------------------|
D|----------6--x-7--x--8--9-----------------x-9--x-7--5h6----------|
A|----7--7------------------------------------------------7--------|
E|-----------------------------------------------------------------|


G|-----------------------------------------------------------------|
D|-------------------------------4--x-5--x-6--7--7-----------------|
A|----------4--x--5--x--6--7--7---------------------4--5-----------|
E|----5--5---------------------------------------------------------|


G|--------------------------7---9---9---7--------------------------|
D|--------6--x--7--x--8--9-----------------x--9---7--6--7----------|
A|----7------------------------------------------------------------|
E|-----------------------------------------------------------------|


G|-----------------------------------------------------------------|
D|----9---7--------------------------------------------------------|
A|------------9--8--7---5------------------------7-----------------|
E|--------------------------7--6--5--------------------------------

Led Zeppelin Is #1 Band





Comments


Popular Led Zeppelin tabs & chords
Hot Dog Bass Tabs
Since Ive Been Loving You Bass Tabs
Stairway To Heaven 5 Chords
Dazed And Confused Live 1 Tabs
No Quarter 4 Tabs
Out On The Tiles 5 Tabs
Stairway To Heaven 5 Tabs
Ten Years Gone 6 Tabs
The Ocean Tabs
Since Ive Been Loving You Ukulele


Song lyrics



↑ Back to top | Tablatures and chords are parodies/interpretations of the original songs. You may use it for private study, scholarship, research or language learning purposes only
© 2014 AZChords.com Contact us | Privacy policy | DMCA | Add/correct tabs | Request tabs | Top 50 tabs