>
 >
No Quarter Live

No Quarter Live Guitar Tabs

Led Zeppelin - No Quarter Live chords, tabs, tablatures, lyrics

Guitar lessons | Add/correct | Request | Top 50 tabs Artists:  A B C D E F G H I J K L M N O P Q R S T U V W X Y Z 0-9

No Quarter Live Guitar Tabs – Led Zeppelin

CD, Sheet music, Poster

Do you like No Quarter Live? Share with your friends now
Tabs

No Quarter (Live)

Led Zeppelin
Page, Jimmy

b: Bend
p: Pull-off
s: Slide
h: Hammer-On
~: Vibrato
br:Bend & Release
(?):While holding a bend hit the note.
 .:The dot above a note means stacatto. (Quickly stop don't let the note ring.)
 x:Mute string

Now I don't think that I've got the guitar solo note for note perfect, but I think that
it's pretty close, as you learn the solo you'll probably be able to correct any mistakes
that I've
made.


Keyboard Intro.

Then...

e|-------------------------------------|
B|-5-----5-------------10----10--------|
G|-7---7---7-----------12-------12-----|
D|-8-8-------8---------13-13-------13--|
A|-8-------------------13--------------|
E|-------------------------------------|

  Use a Wah-wah pedal here. (At least I think it's a Wah-wah pedal!)
e|-----------------------------------------------------------|
B|-----------------------------------------------------------|
G|-----------------------------------------------------------|
D|-----7-7-7--------7-7----------7----------------------3----|
A|-3s5-5-5-5s3--3s5-5-5s3--3s5-5----------5----------3----5--|
E|----------------------------------1s3-3---3-1--0-5---5-----|

e|-----------------------------------------------------------|
B|-----------------------------------------------------------|
G|-----------------------------------------------------------|
D|-----7-7-7--------7-7----------7----------------------3----|
A|-3s5-5-5-5s3--3s5-5-5s3--3s5-5----------5----------3----5--|
E|----------------------------------1s3-3---3-1--0-5---5-----|

e|-----------------------------------------------------------|
B|-----------------------------------------------------------|
G|-----------------------------------------------------------|
D|-----7-7-7--------7-7----------7----------------------3----|
A|-3s5-5-5-5s3--3s5-5-5s3--3s5-5----------5----------3----5--|
E|----------------------------------1s3-3---3-1--0-5---5-----|

e|--------------------------------------------------------------|
B|--------------------------------------------------------------|
G|--------------------------------------------------------------|
D|-----7-7-7--------7-7----------7----------------------3-------|
A|-3s5-5-5-5s3--3s5-5-5s3--3s5-5----------5----------3----5-5b--|
E|----------------------------------1s3-3---3-1--0-5---5--------|


Verse with just keyboard.

Then...

e|-------------------------------------|
B|-5---5-----5------------10----10-----|
G|-7-----7-----7----------12-------12--|
D|-8-8-----8-----8--------13-13--------|
A|-8----------------------13-----------|
E|-------------------------------------|

  Use a Wah-wah pedal here.
e|-----------------------------------------------------------|
B|-----------------------------------------------------------|
G|-----------------------------------------------------------|
D|-----7-7-7--------7-7----------7----------------------3----|
A|-3s5-5-5-5s3--3s5-5-5s3--3s5-5----------5----------3----5--|
E|----------------------------------1s3-3---3-1--0-5---5-----|

e|-----------------------------------------------------------|
B|-----------------------------------------------------------|
G|-----------------------------------------------------------|
D|-----7-7-7--------7-7----------7----------------------3----|
A|-3s5-5-5-5s3--3s5-5-5s3--3s5-5----------5----------3----5--|
E|----------------------------------1s3-3---3-1--0-5---5-----|

e|-----------------------------------------------------------|
B|-----------------------------------------------------------|
G|-----------------------------------------------------------|
D|-----7-7-7--------7-7----------7----------------------3----|
A|-3s5-5-5-5s3--3s5-5-5s3--3s5-5----------5----------3----5--|
E|----------------------------------1s3-3---3-1--0-5---5-----|

e|--------------------------------------------------------------|
B|--------------------------------------------------------------|
G|--------------------------------------------------------------|
D|-----7-7-7--------7-7----------7----------------------3-------|
A|-3s5-5-5-5s3--3s5-5-5s3--3s5-5----------5----------3----5-5b--|
E|----------------------------------1s3-3---3-1--0-5---5--------|


Keyboard Solo...


Guitar Solo (5:20)

e|-------8-5--------------8-5-------------8-5-------------8-5-----------8-5---------|
B|-6-6-5------6-6s5s6s5-5-----6-6s5s6s5-5-----6-6s5s6s5-5-----6-6s5s6s5-------------|
G|-0--------------------------------------------------------------------------------|
D|----------------------------------------------------------------------------------|
A|----------------------------------------------------------------------------------|
E|----------------------------------------------------------------------------------|

e|-------------8-5------------------------------------------------------------------|
B|-6-6s5s6s5-5------6-6s5s6s5s6s5---------------6-6s5s6s5------x-x-5---5---5--------|
G|-----------------------------------x-x-5-5----0---------7----x-x-5---5---5--------|
D|---------------------------------7---------7---------------7-------7---7---7------|
A|----------------------------------------------------------------------------------|
E|----------------------------------------------------------------------------------|

e|--------------------------------------------------------------8-5-----------8-----|
B|-6-6s5s6s5----------------6-6s5s6s5---------------6-6s5s6s5-------6s5s6s5---------|
G|-----------7------------------------7-----------------------7-------------7-------|
D|----------------x-x-5-------------------x-x-5-------------------------------------|
A|--------------7-------7-7-------------7-------7-7---------------------------------|
E|----------------------------------------------------------------------------------|

e|----------------------------------------------------------------------------------|
B|----------------------------------------------------------------------------------|
G|------------------------------5-7s9-7-7-7v-----5-7s9-7-7-7---5-7s9-7-7-7--7-5-----|
D|---7p5---5s3---3s0------3-5s7--------------5h7-------------7----------------------|
A|-7-----7-----5------3h5-----------------------------------------------------------|
E|----------------------------------------------------------------------------------|

e|----------------------------------------------------------------------------------|
B|-----------------8-6h8p6--5h6p5---5-----------6s8-6h8p6-6p5---5-6p5---5-----------|
G|-7h9p7-7-7v--7-9----------------7---7p5~--5-7---------------7-------7---7p5-------|
D|----------------------------------------------------------------------------7p5---|
A|----------------------------------------------------------------------------------|
E|----------------------------------------------------------------------------------|

e|------------------------------------------------8-10-8-10-10b12---10b12-10-8h10p8-|
B|-------------------------------------------6s10-----------------------------------|
G|---------------------------5-7-5h7p5---5-7----------------------------------------|
D|---5s3-5p3---3h5p3---3-5s7-----------7--------------------------------------------|
A|-7---------5-------5--------------------------------------------------------------|
E|----------------------------------------------------------------------------------|

e|----8-------------------------------------------------------------------------------|
B|-10---10p8---8----------------------------------------------------------------------|
G|-----------9---10s12-10-10p12----10----------------10h12p10----10-10p12----10-12s14-|
D|------------------------------12----10p12----10-12----------12----------12----------|
A|------------------------------------------12----------------------------------------|
E|------------------------------------------------------------------------------------|

e|--.----------------.--------------------------------------------------------------|
B|-13---13-15-15-15-15--13-15-15b17-15b17-15b17-15b17--15b17-(17)-15b17-(17)r-p13---|
G|----------------------------------------------------------------------------------|
D|----------------------------------------------------------------------------------|
A|----------------------------------------------------------------------------------|
E|----------------------------------------------------------------------------------|

e|----------------------------------------------------------------------------------|
B|-13h15p13----15p13----13----------------------------------------------------------|
G|----------14-------14----14p12----12-12p10----10----------------------------------|
D|-------------------------------14----------12----12-10-10h12p19----10-------------|
A|----------------------------------------------------------------12----12-12p10----|
E|-------------------------------------------------------------------------------12-|

e|----------------------------------------------------------------------------------|
B|----------------------------------------13p10----10-------------------13-15-13b15-|
G|-------------------------10h12p10----10-------12----12p10----10-12s14-------------|
D|-------10h12p10----10-12----------12----------------------12----------------------|
A|-10-12----------12----------------------------------------------------------------|
E|----------------------------------------------------------------------------------|

e|----------------------------------------------------------------------------------|
B|----------------------------------------------------------------------------------|
G|-x--------------------------------------------------------------------------------|
D|-x---12p10----10-----------------7p5----------------------------------------------|
A|-----------12----12s10-10p8----8-----7s5-5p3p0-----3-5-3-3h5-5-5-5-5p3-3h5-5-5-5--|
E|----------------------------10-----------------3b---------------------------------|
                                                                            .
e|-------------------------------------------------8--------------------8p5p0-----.-|
B|---------------------------------------5-6-5h6p5---6p5---5---------.--------6p5p0-|
G|-------------------------------7p5---5-----------------7---7p5---5-7--------------|
D|---------------------------5-7-----7---------------------------7------------------|
A|-5p3-3h5-5-5-5-3h5-5-5-5s7--------------------------------------------------------|
E|----------------------------------------------------------------------------------|

e|----------------------------------------------------------------------------------|
B|-----.-------------5-6-5h6p5---5-6-6b7-6b7-6b7r-p6-6-5h6p5------------------------|
G|-7p5p0-----.---5-7-----------7-----------------------------7-7-7~-----------------|
D|-------7p5p0-7--------------------------------------------------------------10-12-|
A|-------------------------------------------------------------------------10-------|
E|---------------------------------------------------------------------/12----------|

e|--------------------------------------------15b17-15-13---------------------------|
B|--------------------------------------------------------15-13-15-15b17-15p13------|
G|--10-12-12p10----12-10h12p12----10-------------------------------------------14---|
D|--------------12-------------12----12-12~-----------------------------------------|
A|----------------------------------------------------------------------------------|
E|----------------------------------------------------------------------------------|

e|------------------15b17-15-13-15-13h15p13-----------------------------------------|
B|--------------.---------------------------15-13-15p13-----------------------------|
G|-14p12----14-12---------------------------------------14s12----14-14p12----12-12~-|
D|-------14---------------------------------------------------14----------14--------|
A|----------------------------------------------------------------------------------|
E|----------------------------------------------------------------------------------|

e|----------------------------------------------------------------------------------|
B|----------------------------------------------------------------------------------|
G|----------12-14-12h14p12----12h14p12----12-----12h14p12----12h14p12----12h14p12---|
D|----12-14----------------14----------14-----14----------14----------14------------|
A|-14-------------------------------------------------------------------------------|
E|----------------------------------------------------------------------------------|

e|-------------------------------------12-13-15-13-15-15b17-13----13-15-15b17--15-13-|
B|----12-13-12h13p12----12----12-13-15-------------------------15--------------------|
G|-14----------------14----14--------------------------------------------------------|
D|-----------------------------------------------------------------------------------|
A|-----------------------------------------------------------------------------------|
E|-----------------------------------------------------------------------------------|
                                               .
e|-15-15b17-15b17-----13-15-13-13h15p13----13-13--13h15p13----13-15-15b17-15b17-----|
B|-----------------15-------------------15-----------------15-----------------------|
G|----------------------------------------------------------------------------------|
D|----------------------------------------------------------------------------------|
A|----------------------------------------------------------------------------------|
E|----------------------------------------------------------------------------------|

e|-13-15-13--12-13-12-12b13-12-13-12h13p12----12-------------------------------------|
B|-----------------------------------------15----13p12----12-------------------------|
G|-----------------------------------------------------14----14p12----12-------------|
D|-----------------------------------------------------------------14----14p12----12-|
A|-----------------------------------------------------------------------------14----|
E|-----------------------------------------------------------------------------------|

e|----------------------------------------------------------------------------------|
B|----------------------------------------------------------------------------------|
G|----12h14p12----12--------------.-----7p5p0----------------------5s7-7-7-7s9-9-10-|
D|-14----------14----14p12----12-12-----------7p5p0----------------x---x-x-x---x-x--|
A|-------------------------14-----------------------7p5p0-0-3-0-3--3s5-5-5-5s7-7-8--|
E|----------------------------------------------------------------------------------|

e|-----------------------------------------------------------------------------------|
B|-----------------------------------------------------------------------------------|
G|-12-12/-5-5s7-7-7-7s9-9-10-12-12/--5s7-7-7-7s9-9-10-12-12-12/--5s7-7-7-7s9-9-10-12-|
D|--x--x--x-x---x-x-x---x-x--x--x----x---x-x-x---x-x--x--x--x----x---x-x-x---x-x--x--|
A|-10-10/-3-3s5-5-5-5s7-7-8--10-10/--3s5-5-5-5s7-7-8--10-10-10/--3s5-5-5-5s7-7-8--10-|
E|-----------------------------------------------------------------------------------|

e|---------------------------13----13------------------------------------------------|
B|-------------13-13-12-13~--13b15-13b15-13b15~r--13-13-12-13~-12-13~--15-17b18r-p15-|
G|-------14-14-----------------------------------------------------------------------|
D|-15-15-----------------------------------------------------------------------------|
A|-----------------------------------------------------------------------------------|
E|-----------------------------------------------------------------------------------|

e|----------------------------------------------------------------------------------|
B|-17-17b18-17b18r-p15--------------------------------------17b18r-p15-17-15-17b18--|
G|-----------------------17b19~r-17~--16-17-16-17-16h17-14--------------------------|
D|----------------------------------------------------------------------------------|
A|----------------------------------------------------------------------------------|
E|----------------------------------------------------------------------------------|
    .               .
e|-17--.-----------17----------------------------------------------------------------|
B|----17b18--17b18----17b18-15h17p15~------------------------------------------------|
G|------------------------------------17b19~r-16h17p16-16-14-16-14-16h17p16p14-16-14-|
D|-----------------------------------------------------------------------------------|
A|-----------------------------------------------------------------------------------|
E|-----------------------------------------------------------------------------------|

e|----------------------------------------------------------------------------------|
B|----------------------------------------------------------------------------------|
G|-10h12p10----10-12-10h12p10----10-12-10b12---10b12r-10-12-10h12p10----10----------|
D|----------12----------------12-------------------------------------12----12p10----|
A|-------------------------------------------------------------------------------12-|
E|----------------------------------------------------------------------------------|

e|-----------------------------------------------15b17-15-13---------------------17b19-|
B|-------------------------------------------10--------------15-13-15-15~--15p13-------|
G|-----------------------------------------x-10----------------------------------------|
D|-10-----------------------10-12-12-12~---x-------------------------------------------|
A|----12s10-10p8----8-10s12------------------------------------------------------------|
E|---------------10--------------------------------------------------------------------|

e|---------17b19-17-15-13h15p13----15p13-15-13-13~----------------------------------|
B|-15-15~-----------------------15------------------17b18-17b18-17b18r p15--17------|
G|----------------------------------------------------------------------------------|
D|----------------------------------------------------------------------------------|
A|----------------------------------------------------------------------------------|
E|----------------------------------------------------------------------------------|
     (For this part you should really just do a lot of bend & release pull-offs fast,
      you'd get away with it.)
e|----------------------------------------------------------------------------------|
B|-17b18r-p15-17-17b18r-p15-17-17b18r-p15-17-15-17-17b18r-p15-15-17-17b18r-p15-17---|
G|----------------------------------------------------------------------------------|
D|----------------------------------------------------------------------------------|
A|----------------------------------------------------------------------------------|
E|----------------------------------------------------------------------------------|

e|-------------------------------------------------------------------------------------|
B|-17b18r-p15-17-17b18r-p15-15-17-17b18r-p15-17-17b18r-p15-15-17b18r-p15-17-17b18r-p15-|
G|-------------------------------------------------------------------------------------|
D|-------------------------------------------------------------------------------------|
A|-------------------------------------------------------------------------------------|
E|-------------------------------------------------------------------------------------|
       .
e|-13-15b17r----15p13---15p13----15-13-13~------------10--------.---------------10--|
B|-----------15-------x-------15-------------------10----13-10-13p10---------10-----|
G|-------------------------------------------12b14---------------------12b14--------|
D|----------------------------------------------------------------------------------|
A|----------------------------------------------------------------------------------|
E|----------------------------------------------------------------------------------|

e|----------------------------------------------------------------------------------|
B|--------------10------------------------------------------------------------------|
G|-13p10--12b14----12p10----12-12p10----10------------------------------------------|
D|-----------------------12----------12----12p10----10-----------------------10-12--|
A|-----------------------------------------------12----12s10-10p8----8-10s12--------|
E|----------------------------------------------------------------10----------------|

e|------------------------------------------------------------------------------------|
B|----------------------------------------13-15-13b15---------------------10----------|
G|-10h12p10----10-12p10----10-12p10-12s14--------------x-12-10----10-x----10-10-------|
D|----------12----------12-------------------------------------12------12-------12p10-|
A|------------------------------------------------------------------------------------|
E|------------------------------------------------------------------------------------|

e|--------------------------.--------------------------------------------------------|
B|-------------------13-15-15--13h15-15-15-13h15-15-15-13h15-15-15-13h15-15-15-13h15-|
G|-----12-12~--12s14-----------------------------------------------------------------|
D|-----------------------------------------------------------------------------------|
A|--12-------------------------------------------------------------------------------|
E|-----------------------------------------------------------------------------------|

e|-------13-15b17-13-15-13----15----13-15p13----15-13-15p13----15----13-13p15----15----|
B|-15-15-------------------15----15----------15-------------15----15----------15----15-|
G|-------------------------------------------------------------------------------------|
D|-------------------------------------------------------------------------------------|
A|-------------------------------------------------------------------------------------|
E|-------------------------------------------------------------------------------------|

e|-13-15p13--------------------------------------------------------------------------|
B|----------12-13-12h13p12----12-----------------------------------------------------|
G|-------------------------14----14p12----12-12s10-12p10----10-12p10----10-12--------|
D|-------------------------------------14----------------12----------12-------12p10--|
A|-----------------------------------------------------------------------------------|
E|-----------------------------------------------------------------------------------|
                                                                   *Don't hit the
                                                                    string for these
                                                                    (14p12) parts.
e|-----------------------------------------------------------------------------------|
B|--------------------------------10-10----10-----10-10---12-------*-----------------|
G|-------------10h12p10----10-----10-10----10-----10-10---12h14p12-14p12-14p12-10----|
D|----10-10-12----------12----/12-------12----/12------------------------------10----|
A|-12--------------------------------------------------------------------------------|
E|-----------------------------------------------------------------------------------|

e|-----------------------------------------------------------------------------------|
B|-12-------*---------------12----------------------------10-------------13p10----10-|
G|-12h14p12-14p12-14p12-10--12h14p12-*14p12-14p12-10------10-12-10-12p10-------12----|
D|----------------------10------------------------10--/12----------------------------|
A|-----------------------------------------------------------------------------------|
E|-----------------------------------------------------------------------------------|

e|-----------------------------------------------------------------------------------|
B|-----------.-----------------------------------------------------------------------|
G|-12b14-12-10--12-10h12p10----10-12p10----12-12p10----10----------------------------|
D|--------------------------12----------12----------12----12p10----10----------------|
A|--------------------------------------------------------------12----12s10-10p8-----|
E|-------------------------------------------------------------------------------10--|

e|--------------------------------|
B|--------------------------------|
G|-------------------7-7p5---5-7~-|
D|-------7-7p5---5-7-------7------|
A|-8-5h7-------7------------------|
E|--------------------------------|

  Using Wah-wah pedal (End 1.)
e|-----------------------------------------------------------------------------------|
B|-6-5------------------6-5------------------6-5-----------------6-5-----------------|
G|-----7--7-7-5-------------7--7-7-5-------------7--7-7-5------------7--7-7-5--------|
D|--------------7-5------------------5-3------------------3-5-----------------3-5----|
A|---------------------------------------5--------------------5-------------------5~-|
E|-----------------------------------------------------------------------------------|
   (This part can't really be tabed out, but it's something like this.)
e|--5-x-x-x-5-5-x-x-x-5---5-x-x-x-5---5-x-x-5---x-x-x-5---5-5-5-5-5-5--5-5-5-5-5-5---|
B|--6-x-x-x-6-6-x-x-x-6p5-6-x-x-x-6p5-6-x-x-6p5-x-x-x-6p5-6-6-6-6-5-6--5-6-6-6-5-6---|
G|--5-x-x-x-5-5-x-x-x-5---5-x-x-x-5---5-x-x-5---x-x-x-5---5-5-5-5-5-5--5-5-5-5-5-5---|
D|--0-----------------------------------------------------0----------------------0---|
A|-----------------------------------------------------------------------------------|
E|-----------------------------------------------------------------------------------|
 END OF SOLO

  (I've got the video of The Song Remains The Same and it finishes differently, so
   if tabbed out the way it ends on the video, just so you can put the two endings
   together.)

  Using Wah-wah pedal. (End 2.)
e|----------------------------------.---------------------------------------------------|
B|----------------------------------6-5-------6p5---6p5----6p5--------------------------|
G|-7-7-7s5-7-7s5-7-7---7s5---7-7s5------7-5-------7-----7------7-7p5-------------5-7-7~-|
D|-5-5-5s3-5-5s3-5---5-5s3-5---5s3----------7------------------------7-7p5---5-7--------|
A|-------------------------------------------------------------------------7------------|
E|--------------------------------------------------------------------------------------|

e|-------------------------------------------------|
B|-6p5---6p5-----5h6p5---5-6-8b10-8b10-------------|
G|-----7-----7-7-------7---------------5-5-5-5-5s7-|
D|-------------------------------------------------|
A|-------------------------------------3-3-3-3-3s5-|
E|-------------------------------------------------| (Well, it's something like that.)

3rd Verse with just Keyboard. (9:36)

  Then...
e|--------------------------------------------------------|
B|-5---5---------5------5---------10------10-------10-----|
G|-7-----7---------7----7---------12-12------12-------12--|
D|-8-------8------------8---------13------------13--------|
A|-8---------8--------8-8---------13----------------------|
E|--------------------------------------------------------|

  With Wah-wah pedal.
e|------------------------------------------------------------|
B|------------------------------------------------------------|
G|------------------------------------------------------------|
D|-----7-7-7--------7-7-7---------7----------------------3----|
A|-3s5-5-5-5s3--3s5-5-5-5s3-3s5-5----------5----------3----5--|
E|-----------------------------------1s3-3---3-1--0-5---5-----|

e|------------------------------------------------------------|
B|------------------------------------------------------------|
G|------------------------------------------------------------|
D|-----7-7-7--------7-7-7---------7----------------------3----|
A|-3s5-5-5-5s3--3s5-5-5-5s3-3s5-5----------5----------3----5--|
E|-----------------------------------1s3-3---3-1--0-5---5-----|

e|------------------------------------------------------------|
B|------------------------------------------------------------|
G|------------------------------------------------------------|
D|-----7-7-7--------7-7-7---------7----------------------3----|
A|-3s5-5-5-5s3--3s5-5-5-5s3-3s5-5----------5----------3----5--|
E|-----------------------------------1s3-3---3-1--0-5---5-----|

e|-------------------------------------------------------------------10----------10---|
B|----------------------------------------------------------------10----------10------|
G|----------------------------------------------------------12b14-------12b14---------|
D|-----7-7-7--------7-7-7---------7-------------------3-------------------------------|
A|-3s5-5-5-5s3--3s5-5-5-5s3-3s5-5----------5------------5-----------------------------|
E|-----------------------------------1s3-3---3-1--0-5-----x---------------------------|


e|----------10----------10----------10----------10----------10----------10----------10-|
B|-------10----------10----------10----------10----------10----------10----------10----|
G|-12b14-------12b14-------12b14-------12b14-------12b14-------12b14-------12b14-------|
D|-------------------------------------------------------------------------------------|
A|-------------------------------------------------------------------------------------|
E|-------------------------------------------------------------------------------------|

e|----------10----------10----------10----------10----------10----------10----------10-|
B|-------10----------10----------10----------10----------10----------10----------10----|
G|-12b14-------12b14-------12b14-------12b14-------12b14-------12b14-------12b14-------|
D|-------------------------------------------------------------------------------------|
A|-------------------------------------------------------------------------------------|
E|-------------------------------------------------------------------------------------|

e|-13b15-13~-10----10------------------------------------------------------------------|
B|--------------13----13-10-13p10----10------------------------------------------------|
G|--------------------------------12----12p10----12-12p10------------------------------|
D|--------------------------------------------12----------12p10------------------------|
A|--------------------------------------------------------------12-10~--8s10~--x-8s10--|
E|-------------------------------------------------------------------------------------|

e|-------------------------------------------------------------------------------------|
B|-------------------------------------------------------------------------------------|
G|---------------------------------------------------------------------7---------------|
D|-12-12------7-7-7------------------------7-7-7--------7-7-7--------5-----------------|
A|-10-10--3s5-5-5-5-3~-----5-5-5-------3s5-5-5-5s3--3s5-5-5-5s3--3s5----------5--------|
E|---------------------1s3-3-3-3-1-1s3----------------------------------1s3-3---3-1--0-|

e|-------------------------------------------------------------------|
B|-------------------------------------------------------------------|
G|-------------------.----------.------------------------------------|
D|------3--------7-7-7------7-7-7--------7----------------------3----|
A|---3----5--3s5-5-5-5--3s5-5-5-5--3s5-5---------5-----------3----5--|
E|-5---5-----------------------------------1s3-3---3-1--0-5----5-----|

e|--------------------------------------------------------|
B|--------------------------------------------------------|
G|---------.----------.-----------------------------------|
D|-----7-7-7------7-7-7--------7---------------------3----|
A|-3s5-5-5-5--3s5-5-5-5--3s5-5---------5----------3----5--|
E|-------------------------------1s3-3---3-1-0-5----5-----|

e|-----------------------------------------|
B|-----------------------------------------|
G|-0---------------------------------------|
D|-5---------3----5---------3----3h5p3-----|
A|-3------3----5--3------3----5--------5b--|
E|----0-5---5--------0-5---5---------------|

Well there it is, that's my attempt at No Quarter Live.





Comments


Popular Led Zeppelin tabs & chords
Celebration Day Bass Tabs
Fool In The Rain 2 Bass Tabs
Ramble On Intro Chords
Down By The Seaside Drum Tabs
Gallows Pole Drum Tabs
Black Dog Live Tabs
Fool In The Rain 1 Tabs
Stairway To Heaven Tabs
That's The Way 1 Tabs
Houses Of The Holy Ukulele


Song lyrics



↑ Back to top | Tablatures and chords are parodies/interpretations of the original songs. You may use it for private study, scholarship, research or language learning purposes only
© 2014 AZChords.com Contact us | Privacy policy | DMCA | Add/correct tabs | Request tabs | Top 50 tabs