» » »

Led Zeppelin, No Quarter Tabs (ver.1)

Artists:  A B C D E F G H I J K L M N O P Q R S T U V W X Y Z # 

No Quarter Tabs (ver.1)

Led Zeppelin Tabs
 Rating:
4/5 (4 votes)
No Quarter lessons Tabs too difficult? Try these video lessons and learn fast
1
                E|----------------|----------------|----------------|----------------|
B|4---------------|(4)-------------|9---------------|(9)-------------|
G|6---------------|(6)-------------|11--------------|(11)------------|
D|7---------------|(7)-------------|12--------------|(12)------------|
A|7---------------|(7)-------------|12--------------|(12)------------|
E|----------------|----------------|----------------|----------------|

E|----------------|----------------|         |----------------|
B|----------------|----------------|         |----------------|
G|----------------|----------------| Play 4  |----------------|
D|--666---666---6-|------------2---| times   |----------------|
A|24444-24444-2444|--4442----2--4--| then    |24--------------|
E|----------------|022220--04-4----|         |----------------|

E|----------------|----------------|----------------|----------------|
B|4---------------|(4)-------------|9---------------|(9)-------------|
G|6---------------|(6)-------------|11--------------|(11)------------|
D|7---------------|(7)-------------|12--------------|(12)------------|
A|7---------------|(7)-------------|12--------------|(12)------------|
E|----------------|----------------|----------------|----------------|

E|----------------|----------------|        
B|----------------|----------------|        
G|----------------|----------------|   
D|--666---666---6-|------------2---|    
A|24444-24444-2444|--4442----2--4--|    
E|----------------|022220--04-4----|        

E|----------------|----------------|----------------|-------------------|
B|----------------|----------------|----------------|-------------------|
G|----------------|--------8646----|(6)-------------|------------91198--|
D|----------------|-------6--------|----------------|----98-----------11|
A|----------------|-----67---------|----------------|------111111-------|
E|----------------|----------------|----------------|-------------------|
 |                                                   
E|----------------------|----------------|------------------------------|----------------|
B|----------------------|----------------|------------------------------|----------------|
G|-----------------486-4|8646------------|-------8118118-8118118-8------|----------------|
D|--96-96-64------6-----|----------------|--98--9-------9-------9-98--89|8---------------|
A|----9--7--7---4-7------|----------------|----11--------------------11--|-111111---------|
E|----------------------|----------------|------------------------------|----------------|
 
E|----------------|----------------|
B|----------------|----------------|
G|----------------|----------------|
D|----------------|----------------|
A|----------------|----------------|
E|----------------|----------------|
 |                                 |
E|--------------------------1411--|1411------------------------------------|
B|-----------------------112----12|----1216121112----11------------8-------|
G|--------9-----911111113---------|--------------1113--13119--91112--121198|
D|----8911-11911------------------|-------------------------11-------------|
A|--11----------------------------|----------------------------------------|
E|--------------------------------|----------------------------------------|

E|----------------|----------------|
B|----------------|-----------91111|
G|----------------|----------------|
D|----------------|----------------|
A|----------------|----------------|
E|----------------|----------------|
 |                                 |
E|-------------------------|----------------|
B|-------------------------|----------------|
G|98--898--9---------------|----------4-68-8|
D|--11---11-119--911---9---|----------------|
A|-------------11--------76|-676------2-46-6|
E|-------------------------|9---9-----------|

E|----------------------|----------------|12111211--------------------|--------------16------------|
B|12------12121112111211|121416----111211|--------14-12-111212--111214|16171614161417----1716141614|
G|----------------------|----------------|--------------------13------|----------------------------|
D|----------------------|----------------|----------------------------|----------------------------|
A|----------------------|----------------|----------------------------|----------------------------|
E|----------------------|----------------|----------------------------|----------------------------|
 |                                                                                     
E|---------------------------|----------------|----------------|----------------|
B|---------------------------|----------------|----------------|----------------|
G|-11-13----131312-1312131212|13--------------|----------------|----------------|
D|---------------------------|--9-------------|----------------|----------------|
A|--9-11----111110-1110111010|11--------------|----------------|----------------|
E|---------------------------|----------------|----------------|----------------|

E|------------------------------|----------------|----------------|----------------|
B|--121412--111211--11121112----|----------------|----------------|----------------|
G|----------------13--------1311|111315--119--98-|898-------------|----------------|
D|------------------------------|-----------11--9|---11-----------|(11)------------|
A|------------------------------|----------------|----------------|----------------|
E|------------------------------|----------------|----------------|----------------|
                                |
E|----------------|----------------|----------------|----------------|
B|----------------|----------------|----------------|----------------|
G|----------------|----------------|----------------|----------------|
D|----------------|----------------|----------------|----------------|
A|----------------|----------------|----------------|----------------|
E|----------------|----------------|----------------|----------------|

E|----------------|----------------|----------------|----------------|
B|4---------------|(4)-------------|9---------------|(9)-------------|
G|6---------------|(6)-------------|11--------------|(11)------------|
D|7---------------|(7)-------------|12--------------|(12)------------|
A|7---------------|(7)-------------|12--------------|(12)------------|
E|----------------|----------------|----------------|----------------|

E|----------------|----------------|
B|----------------|----------------|
G|----------------|----------------| 
D|--666---666---6-|------------2---| 
A|24444-24444-2444|--4442----2--4--|
E|----------------|022220--04-4----|
            
Submit corrections

comments powered by Disqus
↑ Back to top | Led Zeppelin Tabs for No Quarter. Lyrics for acoustic guitar and electric guitar. 1 Tablatures and chords are parodies/interpretations of the original songs. You may use it for private study, scholarship, research or language learning purposes only