>
 >
No Quarter

No Quarter Guitar Tabs

Led Zeppelin - No Quarter chords, tabs, tablatures, lyrics

Guitar lessons | Add/correct | Request | Top 50 tabs Artists:  A B C D E F G H I J K L M N O P Q R S T U V W X Y Z 0-9

No Quarter Guitar Tabs – Led Zeppelin

CD, Sheet music, Poster

Do you like No Quarter? Share with your friends now
Bass TabsBass Tabs v2Drum TabsDrum Tabs v2TabsTabs v2Tabs v3Tabs v4Tabs v5
Whoever posted No Quarter the other day, thanks. I went home
and tried it (listened to the tape at the same time) and found that
it sounded better one half step higher, though. Maybe my guitar is
tuned off by a fret..

e-------------------------------------------------------------- 
B--------------------------------------------------------------
G--------------------------------------------------------------
D-----7-7-7------7-7-7------7------------------------3-0-------
A-3/5-5-5-5--3/5-5-5-5--3/5-5------5-5-5-3-------3-0-----------
E------------------------------1/3-3-3-3-1---3-5---------------

	If nothing else, that last part is easer to play, and it
sounds right. BTW, I just got a new guitar (Les Paul), but the 
strings seem to be sticking in the nut when I bend. Any ideas/
solutions? Thanks!

-Mike




--
+----------------------------------------------------------------------------+
|  Steve Portigal, Dep't of CIS, University of Guelph, Guelph, ON, N1G 2W1   |
| ~~~~~~~~ ask me about 'undercover' the Rolling Stones mailing list ~~~~~~~ |
|               Time waits for no one, and it won't wait for me..            |
+----------------------------------------------------------------------------+

No Quarter acoustic version from Jimmy Page & Robert Plant's No Quarter

Tuning D-A-D-G-A-D

12 string used on actual recording, and in fact sounds tons better that way.

These symbols-->  ||:  & :|| enclose the repeat areas, I like it, it's closer to real notation

INTRODUCTION:

D--12--------2-3-2-0--2--3--0------2-3-2-0--2--3--0--
A--12--------0--------0--0--0------0--------0--0--0--
G--12--------2--------0--0--0------2--------0--0--0--
D--12--------0--------0--0--0------0--------0--0--0--
A--12--------0--------3--5---------0--------3--5-----
D--12-----0-----------3--5------0-----------3--5-----

  (harm)


||:

VOCAL START: 

D-----------------------------2-3-2-0--2--3--0--
A-----------------------------0--------0--0--0--
G-----2--5--5--7--7--9--9-----2--------0--0--0--
D--------0--0--0--0--0--0-----0--------0--0--0--
A-----0--3--3--5--5--7--7-----0--------3--5-----
D--0-----------------------0-----------3--5-----

      Walkin...


D---------------------------2-3-2-0--2--3--0----
A---------------------------0--------0--0--0----
G------5--5--5--7-----------2--------0--0--0----
D------0--0--0--0-----------0--------0--0--0----
A------3--3--3--5-----------0--------3--5-------
D--0--------------5------0-----------3--5-------

       The Devil...

 :|| x2


D---------------------------------------------------------------
A---------------------------------------------------------------
G-----2--5--5--7--7--9------------------------------------------
D--------0--0--0--0--0------------------------------------------
A-----0--3--3--5--5--7------1---0---1---0---1--->6--0--6--0--6--
D--0------------------------1---0---1---0---1--->6--0--6--0--6--
   
      Carry news...         through...for me and you...


D---------------------------------------------------------------------
A---------------------------------------------------------------------
G-------------------------------------------7-7>8>7--7>8>7--7>8>7-----
D---------------------------------------------------------------------
A--6----6------6---6----5-----3--2-2>0------5-5>6>5--5>6>5--5>6>5-----
D--6----6------6---6----5-----3--2-2>0--------------------------------

   they choose the path where no one goes

||:

D---------------------------------------------------------------------
A---------------------------------------------------------------------
G-------------------------------------------7-7>8>7--7>8>7--7>8>7-----
D---------------------------------------------------------------------
A--5----5------5---5----5-----3--2-2>0------5-5>6>5--5>6>5--5>6>5-----
D--5----5------5---5----5-----3--2-2>0--------------------------------

:|| x3

BACK TO TOP

Ending is same as introduction, end on harmonic at 7 or 12, I like 7 better.

Enjoy,

Toyo Shimano





Comments


Popular Led Zeppelin tabs & chords
Dancing Days 3 Bass Tabs
Fool In The Rain 2 Bass Tabs
Good Times Bad Times 1 Chords
Dazed And Confused Drum Tabs
Ramble On Drum Tabs
Black Country Woman 2 Tabs
Down By The Seaside 3 Tabs
Tea For One Tabs
The Rover 1 Tabs
Stairway To Heaven Ukulele


Song lyrics



↑ Back to top | Tablatures and chords are parodies/interpretations of the original songs. You may use it for private study, scholarship, research or language learning purposes only
© 2014 AZChords.com Contact us | Privacy policy | DMCA | Add/correct tabs | Request tabs | Top 50 tabs