» » »

Misty Mountain Hop Tabs (ver.1)

Artists:  A B C D E F G H I J K L M N O P Q R S T U V W X Y Z # 

Misty Mountain Hop Tabs (ver.1)

Led Zeppelin
Rating:
0/5 (0 votes)

Hard to play? Try these video lessons and learn fast.
                PROPS GO TO: M-13

I havent seen this tab on this site so i did it for them and for anyone else who likes this song, so hey this is my first tab that ive written down here it sounds right to me and to every one else i know so there it is have fun.


(4)=Ghost bend
\=slide
h=hammer
p=pull off
^=bend




MISTY MOUNTAIN HOP


           Main Riff
E--------------------------------
B--------------------------------
G--------------------------------
D---2-------------2-------------
A---0-------------0--------------
E------3--0-0-0-----3--0-0-0-----

This next part comes in after that.

E----------------------------------------------------
B----------------------------------------------------
G----------------------------------------------------
D----------------------------------------------------                  
A---4--5--3--4--5--3--4--5--3--4--5--3--4--5--3--4---
E----------------------------------------------------

This part comes in after they play those two riffs a couple times.

E---------2------------------
B-------3---3----------------
G-----2-------2---------0----
D---0-----------------0------
A-------------------2--------
E---------------0-3----------

Then he plays the main riff again.  Later comes in this riff that sounds 
just like the main riff

E----------------------------------------
B----------------------------------------
G----------------------------------------
D----------------2-----------------2-----
A----------------------------------------
E---3^(5)--3b--0---0--3^(5)--3b--0---0---

The solo starts out going along with the main riff and then branching 
off later.

Solo:
E---------------------------------------------------------------------
B---------------------------------------------------------------------
G---\6--4--0h2h4---\6--4--0h2h4---\6--4--0h2h4---\6--4--0h2h4---\11-9-
D---------------------------------------------------------------------
A---------------------------------------------------------------------
E---------------------------------------------------------------------

E---------------------------------------------------------------------
B--------------------------------------------------------------------- 
G--7-h9---\11--9--7-h9---\11--9--7-h9---\11--9--7-h9---11-p9----------
D-------------------------------------------------------------12-p9---
A---------------------------------------------------------------------
E---------------------------------------------------------------------

E------10-----------------------------------------------10------------
B---------10^(12)-10--8---8-10-----------------------------10^(14)-10-
G-----------------------9-----------------11-p9-----------------------
D--12---------------------------7^(9)------------12-p9----------------
A---------------------------------------------------------------------
E---------------------------------------------------------------------

E-------------------
B--8---8-10---------
G----9-------7^(9)--
D-------------------           Then, from the distance, fades in this 
A-------------------           next guitar part which is played four
E-------------------           times as much as shown. 

E---7^(8)--7-5-7----------7^(8)--7-5-7----------
B-----------------5h7p5-----------------5h7p5---
G-----------------------------------------------
D-----------------------------------------------                       
A-----------------------------------------------
E-----------------------------------------------
            
Hard to play? Try these video lessons and learn fast. | Correct




comments powered by Disqus
↑ Back to top | Tablatures and chords are parodies/interpretations of the original songs. You may use it for private study, scholarship, research or language learning purposes only