» » »

Led Zeppelin, Misty Mountain Hop Tabs (ver.3)

Artists:  A B C D E F G H I J K L M N O P Q R S T U V W X Y Z # 

Misty Mountain Hop Tabs (ver.3)

Led Zeppelin Tabs
 Rating:
4/5 (4 votes)
Misty Mountain Hop lessons Tabs too difficult? Try these video lessons and learn fast
                Misty Mountain hop
Led Zeppelin IV
Led Zeppelin

A: E----------------------------------------------------------------------------------------|
   B----------------------------------------------------------------------------------------|
   G--(2)------------(2)-----------(2)-----------(2)-----------(2)-----------(2)------------|
   D---2----------2---2---------2---2---------2---2---------2---2---------2---2---------2---|
   A---0--------------0-------------0-------------0-------------0-------------0-------------|
   E------3b5--0----0---3b5--0----0---3b5--0----0---3b5--0----0---3b5--0----0---3b5--0----0-|


B: E-------------------------------------------------------------|
   B---6--7--5--6--7(7)--5--6--7(7)--5--6--7(7)-5--6--7(7)--5--7-|
   G---6--7--5--6--7(7)--5--6--7(7)--5--6--7(7)-5--6--7(7)--5--7-|
   D---6--7--5--6--7(7)--5--6--7(7)--5--6--7(7)-5--6--7(7)--5--7-|
   A---4--5--3--4--5(5)--3--4--5(5)--3--4--5(7)-3--4--5(5)--3--5-|
   E-------------------------------------------------------------|

A x4

B

A x4

C: E-----------2------------------|
   B---------3---3----------------|
   G-------2-------2---------0----|
   D---0-------------------0------|
   A---------------------2--------|
   E-----------------0h3----------|

A x2  |  C   |  A x4  |  B  |

A x4  |  B   |  A x4  |  C  |

A x2  |  C   |  A x6  |  B  |

A x4  |  B   |  A x4  |  B  |

A x4  |  C   |  A x2  |  C  |

Now don't play anything for about 2 measures. Then comes the solo.

Solo:
E-----------------------------------------------------------------------|
B-----------------------------------------------------------------------|
G---\6--4--0h2h4---\6--4--0h2h4---\6--4--0h2h4---\6--4--0h2h4---\11-9---|
D-----------------------------------------------------------------------|
A-----------------------------------------------------------------------|
E-----------------------------------------------------------------------|

E-----------------------------------------------------------------------|
B-----------------------------------------------------------------------|
G--7-9---12\11--9--7-9---12\11--9--7-9---12\11--9--7-9------11p9--------|
D------------------------------------------------------------------12p9-|
A-----------------------------------------------------------------------|
E-----------------------------------------------------------------------|

E------10----------------------------------------------10--------------|
B---------10b12-10--8---8-10------------------------------10b12---10---|
G---------------------9-------------------11p9-------------------------|
D--12---------------------------7b9--------------12p9------------------|
A----------------------------------------------------------------------|
E----------------------------------------------------------------------|

E-------------------|
B--8---8-10---------|
G----9-------7b9----| Immediately play the next part - no break
D-------------------|
A-------------------|
E-------------------|

E---7/8----7-5-7----------7/9----7-5-7----------|
B-----------------5h7p5-----------------5h7p5---|
G-----------------------------------------------|
D-----------------------------------------------|
A-----------------------------------------------|
E-----------------------------------------------|

E---7/8----7-5-7----------7/9----7-5-7-------------7/8----7-5-7----------7/9----7-5-7----------|
B-----------------5h7p5-----------------5h7p5--------------------5h7p5-----------------5h7p5---|
G----------------------------------------------------------------------------------------------|
D----------------------------------------------------------------------------------------------|
A----------------------------------------------------------------------------------------------|
E----------------------------------------------------------------------------------------------|

E---7/8----7-5-7---------|
B-----------------5h7p5--|
G------------------------|
D------------------------|
A------------------------|
E------------------------|

B  |  A x4  |  B  |  A X4  |

C  |  A x2  |  C  |  A x6  |

Play this till the song fades out.
            
Submit corrections

comments powered by Disqus
↑ Back to top | Led Zeppelin Tabs for Misty Mountain Hop. Lyrics for acoustic guitar and electric guitar. Tablatures and chords are parodies/interpretations of the original songs. You may use it for private study, scholarship, research or language learning purposes only