» » »

Led Zeppelin, How Many More Times Bass tabs (ver.2)

Artists:  A B C D E F G H I J K L M N O P Q R S T U V W X Y Z # 

How Many More Times Bass tabs (ver.2)

Led Zeppelin Tabs
Rating:
0/5 (0 votes)
How Many More Times lessons Tabs too difficult? Try these video lessons and learn fast
                Led Zeppelin- How many More times
*Key*
x= mute
p=pull-off
h=hammer-on
\-slide down
/=slide up

G|------------------------|
D|------------------------|
A|---7p5---5----7-5---5---|(12x for Intro)
E|-0-----7----0-----7-----|

"How Many More Times..."
G|------------------------|
D|------------------------|
A|---7p5---5----7-5---5---|(12x for First vocal section)
E|-0-----7----0-----7-----|

[AFTER]...Please be true"
G|------------------------|
D|------------------------|
A|-555--------------------|
E|-----555----------------|

G|------------------------|
D|------------------------|
A|---7p5---5----7-5---5---|(11x for Second vocal section)
E|-0-----7----0-----7-----|

[AFTER]..."I'm sure, sure you're gonna crawl"
G|------------------------|
D|------------------------|
A|---7p5---5----7-555-7---|
E|-0-----7----0-----------|

*Guitar Solo*
G|------------------------|
D|------------------------|
A|-5~---7~----------------|(x10)
E|------------------------|

2nd part of Guitar Solo
G|------------------------------------------------------------|
D|------------------------------------------------------------|
A|-5-5555-5555-555555555----7-7777-7777-777777777-------------|(Around 5x)
E|------------------------------------------------------------|

G|----------------999-777------------------------|
D|------------------------999-777-555------------|
A|-7-77777777777---------------------777-555-----|
E|------------------------------------------777-0|

**NOISE AND STUFF**

G|-----------------------------------------------|
D|-----------------------------------------------|
A|-7-7-7-7-7-7-7-777-777-777-777-777-777-777-777-|
E|-----------------------------------------------|

G|-999-777---------------------------------------|
D|---------999-777-555---------------------------|
A|---------------------777-555-------------------|
E|-----------------------------777-0-------------|

"Oh, Rosie"
G|-----|
D|-----|
A|--7\-|
E|-----|
             (x2)
"Oh girl"
G|-----|
D|-----|
A|--7\-|
E|-----|

"Steal Away"
G|-7/9-----|
D|---------|
A|-----7\--|
E|---------|

G|-----|
D|-----|
A|--7\-|(x7)
E|-----|

"All Right,"
G|-----|
D|-----|
A|--7\-|(x2)
E|-----|

(Note: This part's a little hard to hear on the album, so im only a little sure its right.)
G|----------------------------------|
D|----------------------------------|
A|--------------------7\------------|
E|-0--0-3/5--5--5/7-0---------------|

G|-------------------------------|
D|-------------------------------|
A|------------------7------------|
E|-0--0-3/5--5--5/7--5/7-5/7-----|

G|-------------------------------|
D|-------------------------------|
A|-7-77-5-55---------------------|
E|-----------5-3-0---------------|

G|-------------------------------|
D|-------------------------------|
A|-7-77-5-55---------------------|
E|-----------3-5/7-x-5/7---------|

G|---------------------|
D|---------------------|
A|-7-77-5-55---5-7-5---|
E|-----------5---------|

G|------------77-9--------|
D|-----------------x-7/9--|
A|-7-77-5-----------------|
E|------------------------|

G|-------------------------------|
D|-------------------------------|
A|-7-77-5-55---------------------|
E|-----------5-3-0---------------|

G|-------------------------------|
D|-------------------------------|
A|-------------------------------|
E|-5h7-x-5h7-x-5h7-5h7-0---------|


G|-------------------------------|
D|-------------------------------|
A|-7-77-5-55---------------------|
E|-----------5-3-0---------------|


G|-------------------------------|
D|-------------------------------|
A|-7-77-5-55---------------------|
E|-----------5-3-0---------------|


G|-------------------------------|
D|-------------------------------|
A|-7-77-5-55---------------------|
E|-----------5-3-0---------------|

G|------------77-9---------------|
D|--------7p9------x-7/9---------|
A|-7-77-5------------------------|
E|-------------------------------|

"'Aint no need to hide..."
G|--------------------------------------|
D|-------9--9--9--9--9-9--9--9-9--9-----|
A|-----9--9-----9--------9--9---9---9---|
E|-7-7----------------------------------|

G|--------------------------------|
D|-7---------4-6-7-7--------------|
A|-----4-5-7---------7------------|
E|---7-----------------5-5--------|

G|-----------|
D|-----------|
A|-----------|
E|-3-3--0~---|

"'Cause I've got you in the sights... of my gun!"
G|------------------------|
D|------------------------|
A|---7p5---5----7-5---5---|(x12)
E|-0-----7----0-----7-----|

G|------------------|
D|------------------|
A|---7p5---5--------|
E|-0-----7----------|

G|------------------------|
D|------------------------|
A|-555--------------------|
E|-----555----------------|

G|------------------------|
D|------------------------|
A|---7p5---5----7-5---5---|(x2)
E|-0-----7----0-----7-----|

G|------------------|
D|------------------|
A|---7p5---5--------|
E|-0-----7----------|

G|------------------------|
D|------------------------|
A|-555--------------------|
E|-----555----------------|

G|------------------------|
D|------------------------|
A|---7p5---5----7-5---5---|(x4)
E|-0-----7----0-----7-----|

G|------------------|
D|------------------|
A|---7p5---5--------|
E|-0-----7----------|

G|------------------------|
D|------------------------|
A|-555--------------------|
E|-----555----------------|

G|------------------------|
D|------------------------|
A|---7p5---5----7-5---5---|(x2)
E|-0-----7----0-----7-----|

G|------------------|
D|------------------|
A|---7p5---5--------|
E|-0-----7----------|

G|------------------------|
D|------------------------|
A|-555--------------------|
E|-----555---0------------|

G|------------------------|
D|------------------------|
A|-555--------------------|
E|-----555----0-----------|

G|-7--------------------|
D|---7---7--------------|
A|-----5---7------------|
E|-----------5----0-----|

G|------------------------|
D|------------------------|
A|-555--------------------|
E|-----555---0------------|

G|------------------------|
D|------------------------|
A|-7-7777777777777777777--|
E|------------------------|
            

comments powered by Disqus
↑ Back to top | Led Zeppelin Bass for How Many More Times. Lyrics for acoustic guitar and electric guitar. Tablatures and chords are parodies/interpretations of the original songs. You may use it for private study, scholarship, research or language learning purposes only