» » »

Led Zeppelin, How Many More Times Bass tabs (ver.1)

Artists:  A B C D E F G H I J K L M N O P Q R S T U V W X Y Z # 

How Many More Times Bass tabs (ver.1)

Led Zeppelin Tabs
Rating:
0/5 (0 votes)
How Many More Times lessons Tabs too difficult? Try these video lessons and learn fast
                
Bassmen John Paul Jones

Here it is its really simple John Paul Jones did a great job but put your bass on a nice 
sound and you got it,

p=pull off
h= hammer on
/= slide up

G|---------------------------------|
D|---------------------------------|
A|-----7-5--5-----7-5--------------|
E|---0----7-----0-----7-5p0--------|

G|---------------------------------|
D|---------------------------------|
A|-----7-5--5-----7-5--------------|
E|---0----7-----0-----7-5p0--------|

G|---------------------------------|
D|---------------------------------|
A|-----7-5--5-----7-5--------------|
E|---0----7-----0-----7-5p0--------|

G|---------------------------------|
D|---------------------------------|
A|-----7-5--5-----7-5--------------|
E|---0----7-----0-----7-5p0--------|

G|---------------------------------|
D|---------------------------------|
A|-----7-5--5-----7-5--------------|
E|---0----7-----0-----7-5p0--------|

G|---------------------------------|
D|---------------------------------|
A|-----7-5--5-----7-5--------------|
E|---0----7-----0-----7-5p0--------|

G|---------------------------------|
D|---------------------------------|
A|-----7-5--5-----7-5--------------|
E|---0----7-----0-----7-5p0--------|

G|---------------------------------|
D|---------------------------------|
A|-----7-5--5-----7-5--------------|
E|---0----7-----0-----7-5p0--------|

G|---------------------------------|
D|---------------------------------|
A|-----7-5--5-----7-5--------------|
E|---0----7-----0-----7-5p0--------|

G|---------------------------------|
D|---------------------------------|
A|-----7-5--5-----7-5--------------|
E|---0----7-----0-----7-5p0--------|
Right after u finish that the guitar comes in

G|---------------------------------|
D|---------------------------------|
A|-----7-5--5-----7-5--------------|
E|---0----7-----0-----7-5p0--------|

G|---------------------------------|
D|---------------------------------|
A|-----7-5--5-----7-5--------------|
E|---0----7-----0-----7-5p0--------|

How many more times...
G|---------------------------------|
D|---------------------------------|
A|-----7-5--5-----7-5--------------|
E|---0----7-----0-----7-5p0--------|

G|---------------------------------|
D|---------------------------------|
A|-----7-5--5-----7-5--------------|
E|---0----7-----0-----7-5p0--------|

G|---------------------------------|
D|---------------------------------|
A|-----7-5--5-----7-5--------------|
E|---0----7-----0-----7-5p0--------|

G|---------------------------------|
D|---------------------------------|
A|-----7-5--5-----7-5--------------|
E|---0----7-----0-----7-5p0--------|

How many more times...
G|---------------------------------|
D|---------------------------------|
A|-----7-5--5-----7-5--------------|
E|---0----7-----0-----7-5p0--------|

G|---------------------------------|
D|---------------------------------|
A|-----7-5--5-----7-5--------------|
E|---0----7-----0-----7-5p0--------|

G|---------------------------------|
D|---------------------------------|
A|-----7-5--5-----7-5--------------|
E|---0----7-----0-----7-5p0--------|

G|---------------------------------|
D|---------------------------------|
A|-----7-5--5-----7-5--------------|
E|---0----7-----0-----7-5p0--------|

When i give you all...
G|---------------------------------|
D|---------------------------------|
A|-----7-5--5-----7-5--------------|
E|---0----7-----0-----7-5p0--------|

G|---------------------------------|
D|---------------------------------|
A|-----7-5--5-----7-5--------------|
E|---0----7-----0-----7-5p0--------|

G|---------------------------------|
D|---------------------------------|
A|-----7-5--5-----7-5--------------|
E|---0----7-----0-----7-5p0--------|

G|---------------------------------|
D|---------------------------------|
A|-----7-5--5-----5555-------------|
E|---0----7-----------5555---------|

G|---------------------------------|
D|---------------------------------|
A|-----7-5--5-----7-5--------------|
E|---0----7-----0-----7-5p0--------|

G|---------------------------------|
D|---------------------------------|
A|-----7-5--5-----7-5--------------|
E|---0----7-----0-----7-5p0--------|

G|---------------------------------|
D|---------------------------------|
A|-----7-5--5-----7-5--------------|
E|---0----7-----0-----7-5p0--------|

G|---------------------------------|
D|---------------------------------|
A|-----7-5--5-----7-5--------------|
E|---0----7-----0-----7-5p0--------|

G|---------------------------------|
D|---------------------------------|
A|-----7-5--5-----7-5--------------|
E|---0----7-----0-----7-5p0--------|

G|---------------------------------|
D|---------------------------------|
A|-----7-5--5-----7-5--------------|
E|---0----7-----0-----7-5p0--------|

G|---------------------------------|
D|---------------------------------|
A|-----7-5--5-----7-5--------------|
E|---0----7-----0-----7-5p0--------|

G|---------------------------------|
D|---------------------------------|
A|-----7-5--5-----7-5--------------|
E|---0----7-----0-----7-5p0--------|

G|---------------------------------|
D|---------------------------------|
A|-----7-5--5-----7-5--------------|
E|---0----7-----0-----7-5p0--------|

G|---------------------------------|
D|---------------------------------|
A|-----7-5--5-----7-5--------------|
E|---0----7-----0-----7-5p0--------|

G|---------------------------------|
D|---------------------------------|
A|-----7-5--5-----7-5--------------|
E|---0----7-----0-----7-5p0--------|

G|---------------------------------|
D|---------------------------------|
A|-----7-5--5-----7-5--------------|
E|---0----7-----0-----7-5p0--------|

This is were the song slows down alot

G|---------------------------------|
D|---------------------------------|
A|---------------------------------|
E|----7--------7-------7-------7---|

G|---------------------------------|
D|---------------------------------|
A|---------------------------------|
E|----7--------7-------7-------7---|

G|---------------------------------|
D|---------------------------------|
A|---------------------------------|
E|----7--------7-------7-------7---|

G|---------------------------------|
D|---------------------------------|
A|---------------------------------|
E|----7--------7-------7-------7---|

This is were the drums keep on the snare beat

G|---------------------------------|
D|---------------------------------|
A|---------------------------------|
E|-7-7777-7777-77777777------------|

G|---------------------------------|
D|---------------------------------|
A|---------------------------------|
E|-5-5555-5555-55555555------------|

G|---------------------------------|
D|---------------------------------|
A|---------------------------------|
E|-7-7777-7777-77777777------------|

G|---------------------------------|
D|---------------------------------|
A|---------------------------------|
E|-5-5555-5555-55555555------------|

G|---------------------------------|
D|---------------------------------|
A|---------------------------------|
E|-7-7777-7777-77777777------------|

G|---------------------------------|
D|---------------------------------|
A|---------------------------------|
E|-5-5555-5555-55555555------------|

|7777-5555-----------------------------|
|---------7777-5555--------------------|
|------------------7777-5555-----------|
|----------------------------7777-555 0|

G----------------------------------|
D--------------------------3-------|
A----------------------3-5---0-----|
E-3h5--0----3-5-7--0---------------|

The rest is a bit harder  to tab because its really soft and hard to hear.
G--------------------------7h9-----|
D----------------------------------|
A----------------------------------|
E-5----5----5----------------------|

G----------------------------------|
D----------------------------------|
A----------------------------------|
E---------3/7----------------------|

|7777-5555-----------------------------|
|---------7777-5555--------------------|
|------------------7777-5555-----------|
|----------------------------7777-555 0|

(here i can't hear very well im not sure if there is bass or not)
OH ROSIE OH GIRL!

G|---------------------------------|
D|---------------------------------|
A|-----7-5--5-----7-5--------------|
E|---0----7-----0-----7-5p0--------|

G|---------------------------------|
D|---------------------------------|
A|-----7-5--5-----7-5--------------|
E|---0----7-----0-----7-5p0--------|

G|---------------------------------|
D|---------------------------------|
A|-----7-5--5-----7-5--------------|
E|---0----7-----0-----7-5p0--------|

G|---------------------------------|
D|---------------------------------|
A|-----7-5--5-----7-5--------------|
E|---0----7-----0-----7-5p0--------|

G|---------------------------------|
D|---------------------------------|
A|-----7-5--5-----5555-------------|
E|---0----7-----------5555---------|

G|---------------------------------|
D|---------------------------------|
A|-----7-5--5-----7-5--------------|
E|---0----7-----0-----7-5p0--------|

G|---------------------------------|
D|---------------------------------|
A|-----7-5--5-----7-5--------------|
E|---0----7-----0-----7-5p0--------|

G|---------------------------------|
D|---------------------------------|
A|-----7-5--5-----7-5--------------|
E|---0----7-----0-----7-5p0--------|

G|---------------------------------|
D|---------------------------------|
A|-----7-5--5-----5555-------------|
E|---0----7-----------5555---------|

G|---------------------------------|
D|---------------------------------|
A|-----7-5--5-----7-5--------------|
E|---0----7-----0-----7-5p0--------|

G|---------------------------------|
D|---------------------------------|
A|-----7-5--5-----7-5--------------|
E|---0----7-----0-----7-5p0--------|

G|---------------------------------|
D|---------------------------------|
A|-----7-5--5-----7-5--------------|
E|---0----7-----0-----7-5p0--------|

G|---------------------------------|
D|---------------------------------|
A|-----7-5--5----------------------|
E|---0----7----------------555-333-|

G|---------------------------------|
D|---------------------------------|
A|-----7-5--5-----7-5--------------|
E|---0----7-----0-----7-5p0--------|

G|---------------------------------|
D|---------------------------------|
A|-----7-5--5-----7-5--------------|
E|---0----7-----0-----7-5p0--------|

G|---------------------------------|
D|---------------------------------|
A|-----7-5--5-----7-5--------------|
E|---0----7-----0-----7-5p0--------|

G|---------------------------------|
D|---------------------------------|
A|-----7-5--5----------------------|
E|---0----7----------------555-333-|

G----------------------------------|
D----------------------------------|
A----------------------------------|
E-555-333-0--555-333-0-555-333-0---|

G----------------------------------|
D----------------------------------|
A----------------------------------|
E-555555555555555555555555555555555|

THERE YOU GO! Home it helps you out if there is any problums just e-mail me at 
            

comments powered by Disqus
↑ Back to top | Led Zeppelin Bass for How Many More Times. Lyrics for acoustic guitar and electric guitar. Tablatures and chords are parodies/interpretations of the original songs. You may use it for private study, scholarship, research or language learning purposes only