>
 >
Going To California 3

Going To California 3 Guitar Tabs

Led Zeppelin - Going To California 3 chords, tabs, tablatures, lyrics

Guitar lessons | Add/correct | Request | Top 50 tabs Artists:  A B C D E F G H I J K L M N O P Q R S T U V W X Y Z 0-9

Going To California 3 Guitar Tabs – Led Zeppelin

CD, Sheet music, Poster

Do you like Going To California 3? Share with your friends now
Bass TabsChordsChords v2Chords v3TabsTabs v2Tabs v3Tabs v4Ukulele
Led Zeppelin:  Going To California
(Box Set Disc II Version)

Tuning:  Double Drop-D Tuning
There seems to be only one tab available, which to put it bluntly,
does not justice to Jimmy page or John Paul Jones.
Here's a better one. It is difficult and frustrating but it IS right.
It's a mixture of two guitars and a mandolin.


Intro:

D|---0-------0---|---0---2---0---|---0-------0---|---0---0h2---0---|
B|-------3-------|-------3-------|-------3-------|-----------------|
G|---------------|---------------|---------------|-----------------|
D|-----0-------0-|-----0-------0-|-----0-------0-|-----0---------0-|
A|---------------|---------------|---------------|-----------------|
D|-0-------0-----|-0-------0-----|-0-------0-----|-0---------0-----|

D|---0---0h2---0---|---0---0---0---|---0-----0-----0-----0----0----0-------|
B|-----------------|---------------|--------10----10----10---10---10-------|
G|-----------------|---------------|-----11----12----11----9----0----11-11-|
D|-----0---------0-|-----0-------0-|---------------------------------------|
A|-----------------|---------------|---------------------------------------|
D|-0---------0-----|-0-------0-----|-0-------------------------------------|

                                 Mandolin tabbed for Guitar. Guitar keeps playing D pattern.

Verse riff:

D|-5-----4-------0-|-------0-------|-5-----4-------0-|-------0---------|
B|---0-------0-----|---5-------0---|---0-------0-----|---5---0---------|
G|-----0-------0---|-----0-------0-|-----0-------0---|-----------------|
D|-----------------|---------------|-----------------|-----0-----0-----|
A|-----------------|---------------|-----------------|-----------------|
D|-5-------5-------|-5-------5-----|-5-------5-------|-5-------5-------|

"Spend my days with a woman unkind.  Smoked my stuff and drank

D|----------------0-|--------0------7-|--0-------9--------12---12----0----0-|
B|-5h7-7-5----------|---/5---------10-|-10------10---10---10---10---10------|
G|-7---------/7-----|--------7--------|--9h11---11---9----11---11------11---|
D|-----0--------0---|------0-----0----|-------0---------0-----------------0-|
A|------------------|-----------------|-------------------------------------|
D|-0-------0--------|-0--------0------|--0---------0---------0--------------|

"All my wine."

D|-5-----4-------0-|-------0-------|-5-----4-------0-|-----------------|
B|---0-------0-----|---5-------0---|---0-------0-----|---5---0---------|
G|-----0-------0---|-----0-------0-|-----0-------0---|-----0-----------|
D|-----------------|-----------0-0-|-0---0---0-------|-----------0-----|
A|-----------------|---------------|-----------------|-----------------|
D|-5-------5-------|-5-------5-----|-5-------5-------|-5-------5-------|

"Made up my mind. Make a new start. Goin' to California with an achin,"

D|-------7-------0-|-0-----0------0-|-5-----5---7---0-|-0-------0-------5-|
B|-5h7-7-5---5h7---|---5h7-----5h7--|-5h7---5---5---7-|---5h7---7---5h7---|
G|-----------------|-----0-2-----0--|-7---5-----7---7-|-----0---7-----0---|
D|-----0-------0---|----------------|-----7-----------|-------0-----------|
A|-----------------|----------------|-----0-------0---|-------------------|
D|-0-------0-------|-0-------0------|-0-------0-------|-0---------0-------|

"in my heart."

D|-5-----4-------0-|-------0-------|-5-----4-------0-|-------0---------|
B|---0-------0-----|---5-------0---|---0-------0-----|---5---0---------|
G|-----0-------0---|-----0-------0-|-----0-------0---|-----------------|
D|-----------------|---------------|-----------------|-----0-----0-----|
A|-----------------|---------------|-----------------|-----------------|
D|-5-------5-------|-5-------5-----|-5-------5-------|-5-------5-------|

"Someone told me there's a girl out there..  with love in her eyes and flowers

D|-------7-------0-|-------0--------|-5-----5---7---0-|-0-------0-------5-|
B|-5h7-7-5---5h7---|---5h7-----5h7--|-5h7---5---5---7-|---5h7---7---5h7---|
G|-----------------|-----0-------0--|-7---5-----7---7-|-----0---7-----0---|
D|-----0-------0---|----------------|-----7-----------|-------0-----------|
A|-----------------|----------------|-----0-------0---|-------------------|
D|-0-------0-------|-0-------0------|-0-------0-------|-0---------0-------|

"in her hair"

Verse fill:
(my favorite fill....)
D|-3-----3-------|-------2-------2-|-4-0-----------|-------0---------|
B|---5-------5---|-3-------------3-|-3-------------|-------8-7-------|
G|-----7-------7-|---0-0-----0-0---|---------------|-6h7p6-6--7------|
D|-----0-------0-|-----------------|---------------|-----------------|
A|---------------|-2-------2-------|---------------|-----------------|
D|-0-------0-----|-----------------|---------------|-----------------|

D|-3-----3-3\2---|-------2---0---2-|--4-0-----------|
B|---5-----------|-3-------3-----3-|--3-------------|
G|-----7---------|---0-0-----------|----------------|
D|-----0-------0-|-------------0---|----0---0-------|
A|---------------|-2-------2-------|----------------|
D|-0-------0-----|-----------------|-0----0---------|

D|-0-----0---------|-0-------14-|
B|-----------------|------15----|
G|-----------------|o---14-----o|
D|-----0-------0---|o----------o|
A|-----------------|------------|
D|-0-------0-------|-0----------|

                    Repeat Measure 3 times

Verse Riff (as above):
"Took my chances on a big jet plane. Never let them tell ya' that they're all-----the same----."
verse Riff:
"Oh, the sea was red and the sky was grey-- (wondered how) tommorrow, could ever follow today."
Verse Riff:
"Mountain and the canyons start to tremble and shake-- (the) children of the sun
begin, to awake (won't you/watch out)

Other Verse:

D|-----7--5-----------7-|----------7-----------7-|----------5-----------7-|
B|-6---6--------6-----6-|----6-----6-----6-----6-|----6-----6-----6-----6-|
G|-7---7-----------7----|-------7-----------7----|-------7-----------7----|
D|-----0-----0-----0----|-0-----0-----0-----0----|-------0-----------0----|
A|-0--------------------|------------------------|-0----------------------|
D|----------------------|------------------------|-------------0----------|

(It) seems that the warth of the gods got a punch on the nose and it started to flow.

D|----------5-------------|----------------------|---------0-------------|-0--------0-------------|
B|----6-----6-----6-----6-|-2--0--2p0h2--2-----2-|-2p0--2--------2-------|-2--0--2--------2-------|
G|-------7-----------7----|-0-----0--------------|------------------2--2-|-------------------2--2-|
D|-------0-----------0----|-2-----2p0h2-----2----|-2----------------2----|-------2-----------2----|
A|------------------------|-0--------------------|------------0----------|-0-----------0----------|
D|-0-----------0----------|----------------------|-----------------------|------------------------|

"I think it might be sinkin'.        (ah-haaa)

D|-0------0-----------|
B|-----2---------2----|
G|------------------2-|
D|-----2------------2-|
A|-----------0--------|
D|-0------------------|

Other Verse Riff:
"(Please) Throw me a line if i reach it in time. Meet you up there where the
path runs straight and high----"
Intro:
instrumental
Verse Riff:
To find a Queen without a King. They say she plays guitar and cries and (she) sings. (la la la la)
Verse Riff:
Ride a white mare in the foot-steps of dawn. Trying to find a woman who's never,
never, never been born.
Verse Riff:
Standin on a hill in the monutatin of dreams. Tellin' myself it's not as hard,
hard, hard as it seems. (Mmm ha/ Sure is hard))

Outro:
Basically the same a the verse fill but it loops and varies.
 
If you can play what is here you should be able to make up a good sounding ending. 
I'm not posting it. If you want it, request it.





Comments


Popular Led Zeppelin tabs & chords
Poor Tom Bass Tabs
Babe, I'm Gonna Leave You 1 Drum Tabs
Dazed And Confused Drum Tabs
Misty Mountain Hop Drum Tabs
Immigrant Song Tab Tabs
In The Evening 1 Tabs
Since Ive Been Loving You Tabs
Thank You 1 Tabs
The Ocean 3 Tabs
Your Time Is Gonna Come 1 Tabs


Song lyrics



↑ Back to top | Tablatures and chords are parodies/interpretations of the original songs. You may use it for private study, scholarship, research or language learning purposes only
© 2014 AZChords.com Contact us | Privacy policy | DMCA | Add/correct tabs | Request tabs | Top 50 tabs