>
 >
Going To California 2

Going To California 2 Guitar Tabs

Led Zeppelin - Going To California 2 chords, tabs, tablatures, lyrics

Guitar lessons | Add/correct | Request | Top 50 tabs Artists:  A B C D E F G H I J K L M N O P Q R S T U V W X Y Z 0-9

Going To California 2 Guitar Tabs – Led Zeppelin

CD, Sheet music, Poster

Do you like Going To California 2? Share with your friends now
Bass TabsChordsChords v2Chords v3TabsTabs v2Tabs v3Tabs v4Ukulele
Intro:
|----------------|----------------|----------------|----------------|
|-3-3-3---3-3-3--|-3-3-3---3-3-3--|-3-3-3---3-3-3--|-3-3-3---3-3-3--|
|----------------|----------------|----------------|----------------|
|--0---0---0---0-|--0---0---0---0-|--0---0---0---0-|--0---0---0---0-|
|----------------|----------------|----------------|----------------|
|0---0---0---0---|0---0---0---0---|0---0---0---0---|0---0---0---0---|

                                     Mandolin  E(D)|--7-7-7-7-7-7-0-|
                                                  B|-7-8-7-------7--|
                                                  G|-------9-7-9----|


                                                     
|5--4---0---0----|5--4---0---0----|2--2---0---0----|5--5---0---0----|
|-0---0---5---0--|-0---0---5---0--|-3---3---3---3--|-7---7---5---0--|
|--0---0---0---0-|--0---0---0---0-|----------------|--------------0-|
|----------------|----------------|--0---0---0---0-|--0---0---0-----|
|----------------|----------------|----------------|----------------|
|5---5---5---5---|5---5---5---5---|0---0---0---0---|0---0---0---0---|

 Spent...         Smoked...        All...
 Made...          Goin'...         In...
 Some...          Love...          In...


("After verse part")
             p             hp                  p             hp 
|3--3---0-0020--2|---0---0---5-4--|3--3---0-0020--2|---0---0---5-4--|
|-5---5-------0--|-3---3--232-----|-5---5-------0--|-3---3--232-----|
|--5---5--00---0-|----------------|--5---5--00---0-|----------------|
|0-----0--00-----|--0---0---0---0-|0-----0--00-----|--0---0---0---0-|
|----0---2-------|----------------|----0---2-------|----------------|
|----------------|0---0---0---0---|----------------|0---0---0---0---|


(double spaced for double digits...  essentially a D chord at 14th fret)

| - - - 14- - - 14- - - 14- - - 14| - - - 14- - - 14- - - 14- - - 14|
| - - 15- - - 15- - - 15- - - 15- | - - 15- - - 15- - - 15- - - 15- |
| - 14- - - 14- - - 14- - - 14- - | - 14- - - 14- - - 14- - - 14- - |
| - - - - 0 - - - - - - - 0 - - - | - - - - 0 - - - - - - - 0 - - - |
| - - - - - - - - - - - - - - - - | - - - - - - - - - - - - - - - - |
| 0 - - - - - - - 0 - - - - - - - | 0 - - - - - - - 0 - - - - - - - |



                                                    
|5--4---0---0----|5--4---0---0----|2--2---0---0----|5--5---0---0----|
|-0---0---5---0--|-0---0---5---0--|-3---3---3---3--|-7---7---5---0--|
|--0---0---0---0-|--0---0---0---0-|----------------|--------------0-|
|----------------|----------------|--0---0---0---0-|--0---0---0---0-|
|----------------|----------------|----------------|----------------|
|5---5---5---5---|5---5---5---5---|0---0---0---0---|0---0---0---0---|

 Took...          Never...         same...
 Sea...           Wonder...        day...
 Mount...         Chil...          wake...            watch out...   


                                                           
|---5-------5----|---5-------5----|---0-------0----|---0-------0----|
|6--5-6--6--5-6--|6--5-6--6--5-6--|--2--2-2--2---2-|--2---2---2---2-|
|--7---7---7---7-|--7---7---7---7-|-----2---2---2-2|-2---2-2-2---2-2|
|-7-----7-7-----7|-7-----7-7-----7|--2---2---2---2-|--2---2---2---2-|
|0-------0-------|0-------0-------|0---0---0---0---|0---0---0---0---|
|----0-------0---|----0-------0---|----------------|----------------|

 Seems...       nose...            sinking...
 Throw...         Meet...          high...


like intro     |----------------|----------------|
               |-3-3-3---3-3-3--|-3-3-3---3-3-3--|
               |----------------|----------------|
               |--0---0---0---0-|--0---0---0---0-|
               |----------------|----------------|
               |0---0---0---0---|0---0---0---0---|

Mandolin line after Bridge
E(D)|--7i--7i--7i--7i--7p--7p--7p|--7p--7p--7p--7p--7p--7p--7p--7p----|
   B|7i--8m--7i----------5i--7r--|----------------5i--7r------5i--7r--|
   G|------------9r--7r----------|----4i--6m--7r----------7m----------|
   D|----------------------------|7m----------------------------------|

(OR play it this way) 

    | - - - - - - - - - - - - - - -| - - - - - - - - - - - - - - - - - -|
    | - 10- 10- 10- 10- 10- 10- 10-| - 10- 10- 10- 10- 10- 10- 10- 10- -|   
    | 11- 12- 11- 9 - - - 9 - 11- -| - - - - - - - - 9 - 11- - - 9 - 11-|
    | - - - - - - - - 12- - - - - -| - - 9 - 11- 12- - - - - 12- - - - -|
    | - - - - - - - - - - - - - - -| 12- - - - - - - - - - - - - - - - -|
    | - - - - - - - - - - - - - - -| - - - - - - - - - - - - - - - - - -|



|5--4---0---0----|5--4---0---0----|2--2---0---0----|5--5---0---0----|
|-0---0---5---0--|-0---0---5---0--|-3---3---3---3--|-7---7---5---0--|
|--0---0---0---0-|--0---0---0---0-|----------------|--------------0-|
|----------------|----------------|--0---0---0---0-|--0---0---0---0-|
|----------------|----------------|----------------|----------------|
|5---5---5---5---|5---5---5---5---|0---0---0---0---|0---0---0---0---|

 Find...          They...         sings...
 Ride...          Tryin...        born...
 Standing...      Telling...      seems...   
            

(play "After verse part" - see above)

Mandolin line        D|- 17 15 14- - - - -| - 14 19 17 14 - - - -|- - |
played over 2nd half B|- - - - - -15 13- -|15 - - - - - - 15- - -|- - |
of "after verse"     G|- - - - - - - - - -| - - - - - - - - 14- -|- - |
    part             D|- - - - - - - - - -| - - - - - - - - - 17-|16- |


ending: plain
|---2---0---2---0|---2---0---2---0|---2---0---2---0|---2---0---2---0|
|-3---3---3---3--|-3---3---3---3--|-3---3---3---3--|-3---3---3---3--|
|----------------|----------------|----------------|----------------|
|--0---0---0---0-|--0---0---0---0-|--0---0---0---0-|--0---0---0---0-|
|----------------|----------------|----------------|----------------|
|0---0---0---0---|0---0---0---0---|0---0---0---0---|0---0---0---0---|


ending: Fancier (from a Live version)
          s                s                s                s                
|5--0---0---0----|5--0---0---0----|5--0---0---0----|5--0---0---0----|
|-7---5--53---3--|-7---5--53---3--|-7---5--53---3--|-7---5--53---3--|
|----------------|----------------|----------------|----------------|
|--0---0---0---0-|--0---0---0---0-|--0---0---0---0-|--0---0---0---0-|
|----------------|----------------|----------------|----------------|
|0---0---0---0---|0---0---0---0---|0---0---0---0---|0---0---0---0---|





Comments


Popular Led Zeppelin tabs & chords
Hots On For Nowhere Bass Tabs
Houses Of The Holy Chords
Rock And Roll Drum Tabs
Achilles Last Stand 3 Tabs
Babe Im Gonna Leave You (Intro) Tabs
Hey Hey What Can I Do Tabs
Moby Dick 2 Tabs
Rock N Roll Tabs
Tangarine Tabs
The Girl I Love Tabs


Song lyrics



↑ Back to top | Tablatures and chords are parodies/interpretations of the original songs. You may use it for private study, scholarship, research or language learning purposes only
© 2014 AZChords.com Contact us | Privacy policy | DMCA | Add/correct tabs | Request tabs | Top 50 tabs