>
 >
Going To California

Going To California Bass Tabs

Led Zeppelin - Going To California chords, tabs, tablatures, lyrics

Guitar lessons | Add/correct | Request | Top 50 tabs Artists:  A B C D E F G H I J K L M N O P Q R S T U V W X Y Z 0-9

Going To California Bass Tabs – Led Zeppelin

CD, Sheet music, Poster

Do you like Going To California? Share with your friends now
Bass TabsChordsChords v2Chords v3TabsTabs v2Tabs v3Tabs v4Ukulele
#------------------------------------------------------------------------------##

                         GOING TO CALIFORNIA (Bassline)
                           As recorded by Led Zeppelin
            (From the 1973 Album LED ZEPPELIN | V(THE FOUR SYMBOLS))

Words by R.Plant

Music by J.Page

Gtr I (D A D G B D) - 'Mandolin'
Gtr II (G D A D) - 'Untitled'

 Intro
  H=78
 2/2
  Gtr II
  Wx6          Q  E E E E E E   E E E E E E E E
|------------|----------------|------------------||
|------------|------0---0---0-|---0---0---0------||
|------------|----4---5---4---|-2---0---2---4-4--||
|------------|----------------|------------------||


   Verses
    Q.   H    E   +E  Q  E +H       Q  E E +Q.   E   +E  Q  Q  E E E
||--------------|-----------------|----------------|------------------|
||o-------------|-----------------|-2--2-0-(0)---0-|-(0)-0--0--0-0-0--|
||o-5----4----2-|-(2)-2--0-(0)----|-0--0-0-(0)---4-|-(4)-5--4--0-2-0--|
||--------------|-----------------|----------------|------------------|


  E E E E +E  E E E   +E  E E E E E E E
|-------------------|-------------------|
|-0-0-0-0-(0)-0-0-0-|-(0)-0-0---------0-|
|-2-4-4-2-(2)-4-4-7-|-(7)-0-4-0-----0-0-|
|-------------------|-----------2h4-----|


  E  E  E E +E  E  E  E   +E  E  E  E +E  E  E  +E   3x
|-----------------------|----------------------------||
|-0-(0)---0-(0)-0-(0)-0-|-(0)-0-(0)-0-(0)-0-(0)-(0)-o||
|-2h=4--4-4-(4)-2h=4--0-|-(0)-2h=4--0-(0)-2h=4--(4)-o||
|-----------------------|----------------------------||


 Bridge
  Q  E E E E Q    E E E E E E +E  E
|---------------|-------------------|
|---------------|-------------------|
|----3-2-0---0--|-3-2-0---0-0-(0)-0-|
|----------5----|-------5-----------|


  +H     E E E E   H.      E E   Q  E E E E Q
|----------------|-------------|---------------|
|----------------|-------------|---------------|
|-(0)----------0-|-------------|----3-2-0---0--|
|----------2-4---|-2-------4-2-|----------5----|


  E E E E E E E E   H    Q  E E   E E E E +H
|-----------------|-------------|----------------|
|-----------------|-------------|----------------|
|-3-2-0-5-3-2-0---|-0---------0-|-------0-(0)----|
|---------------5-|---------5---|-2-2-4----------|


  E E E E +E  E E E   +E  E E E +E  E E E
|-----0h2-(2)---0h2-|-(2)---0h2-(2)---0h2-||
|---0---------0-----|-----0---------0-----||
|-------------------|---------------------||
|-------------------|---------------------||


   Verses
    Q.   H    E   +E  Q  E +H       Q  E E +Q.   E   +E  Q  Q  E E E
||--------------|-----------------|----------------|------------------|
||o-------------|-----------------|-2--2-0-(0)---0-|-(0)-0--0--0-0-0--|
||o-5----4----2-|-(2)-2--0-(0)----|-0--0-0-(0)---4-|-(4)-5--4--0-2-0--|
||--------------|-----------------|----------------|------------------|


  E E E E +E  E E E   +E  E E E E E E E
|-------------------|-------------------|
|-0-0-0-0-(0)-0-0-0-|-(0)-0-0---------0-|
|-2-4-4-2-(2)-4-4-7-|-(7)-0-4-0-----0-0-|
|-------------------|-----------2h4-----|


  E  E  E E +E  E  E  E   +E  E  E  E +E  E  E  +E   3x
|-----------------------|----------------------------||
|-0-(0)---0-(0)-0-(0)-0-|-(0)-0-(0)-0-(0)-0-(0)-(0)-o||
|-2h=4--4-4-(4)-2h=4--0-|-(0)-2h=4--0-(0)-2h=4--(4)-o||
|-----------------------|----------------------------||


 Bridge - Verse
  Q  E E  E  E E E    Q   E E  Q   E E    Q   E E  Q   E E    Q   E E  Q   E E
|------------------|-------------------|-------------------|-------------------|
|------0-(0)-0---0-|-(0)----0-(0)----0-|-(0)----0-(0)----0-|-(0)----0-(0)----0-|
|-3--0-2--2--2-0-3-|--3---0-2--2---0-3-|--3---0-2--2---0-3-|--3---0-2--2---0-3-|
|------------------|-------------------|-------------------|-------------------|


  H    E E E E   E E E E +E  E q    E E Q  E Q  E   Q  Q  E E E E
|--------------|------------------|---------------|---------------|
|--------0---0-|---0---0-(0)-0----|-----0--0-0--0-|-------------0-|
|--------7-7-7-|-7-7-7-7-(7)-7-7--|-5-7-7--7-7--7-|-5--3--0---0-7-|
|--------------|------------------|---------------|---------5-----|


  Q  E E  Q   E E    Q   E E  Q   E E    Q   E E  Q   E E    Q   E E  Q   E E
|-----------------|-------------------|-------------------|-------------------|
|-0----0-(0)----0-|-(0)----0-(0)----0-|-(0)----0-(0)----0-|-(0)----0-(0)----0-|
|-3--0-2--2---0-3-|--3---0-2--2---0-3-|--3---0-2--2---0-3-|--3---0-2--2---0-3-|
|-----------------|-------------------|-------------------|-------------------|


  Q.   E +H       Q.   E  E  E E E   Q.   E  E  E E E   E E  E  E E E E E
|---------------|------------------|------------------|-------------------||
|------0-(0)----|------0-(0)-0---0-|-0----0-(0)-0-0---|---0-(0)-0-0-0-0-0-||
|------2-(2)----|------2--2--2-5---|-5----2--2--2-2-4-|---3--3--3-3-3-5-2-||
|---------------|------------------|------------------|-------------------||


 Intro
  E E E E  E  E E E   E E E E E E E E   E E E E E E E E   E E E E E E Q
|-------------------|-----------------|-----------------|----------------||
|-------0-(0)-0---0-|---0---0---0---0-|---0---0---0---0-|---0---0---0----||
|-2-4-4-4--4--4-5-7-|-4---2---0-------|---------0---2---|-4---0---2---4--||
|-------------------|-------------2---|-4---6-----------|----------------||


    Q.   H    E   +E  Q  E +H       Q  E E +Q.   E   +E  Q  Q  E E E
||--------------|-----------------|----------------|------------------|
||o-------------|-----------------|-2--2-0-(0)---0-|-(0)-0--0--0-0-0--|
||o-5----4----2-|-(2)-2--0-(0)----|-0--0-0-(0)---4-|-(4)-5--4--0-2-0--|
||--------------|-----------------|----------------|------------------|


  E E E E +E  E E E   +E  E E E E E E E
|-------------------|-------------------|
|-0-0-0-0-(0)-0-0-0-|-(0)-0-0---------0-|
|-2-4-4-2-(2)-4-4-7-|-(7)-0-4-0-----0-0-|
|-------------------|-----------2h4-----|


  E  E  E E +E  E  E  E   +E  E  E  E +E  E  E  +E   3x
|-----------------------|----------------------------||
|-0-(0)---0-(0)-0-(0)-0-|-(0)-0-(0)-0-(0)-0-(0)-(0)-o||
|-2h=4--4-4-(4)-2h=4--0-|-(0)-2h=4--0-(0)-2h=4--(4)-o||
|-----------------------|----------------------------||


  Q  E E E E E E   E E E E E E E E
|----------------|-----------------|
|----------------|-----------------|
|----3-2-0-----0-|-3-2-0-5-3-2-0---|
|----------5-5---|---------------5-|


  Q  a E E +E  E E E   H    Q  E E   E E E E E E E E
|--------------------|-------------|-----7-5-3---------|
|--------0-(0)-0-----|---------0-7-|-8-7-------7-5-3---|
|-0--2S4-------------|-0-----------|-------------------|
|----------------2h4-|-------------|-------------------|


                                        Outro
  E E E E E E E S S   Q  E E  E  Q.      W
|-----7-5-----------|-----------------||----------|
|-5-7-----7-5-0-----|-0--0-0-(0)-0----||----------|
|---------------4-4-|----0-0--0--0----||----------|
|-------------------|-----------------||----------|


  E E E E +E  E E E   +E  E E E +E  E E E
|-----0h2-(2)---0h2-|-(2)---0h2-(2)---0h2---|
|---0---------0-----|-----0---------0-------|
|-------------------|-----------------------|
|-------------------|-----------------------|


  E E E E +E  E E E   E E E E E E E E   +E  E E E +E  E E E
|-4-2-0-7-(7)---0-7-|-0---2-------0-7-|-(7)-----2-(2)-----2-|
|-------------0-----|---0---0-0-0-----|-----0-0-------0-0---|
|-------------------|-----------------|---------------------|
|-------------------|-----------------|---------------------|


  +E  E E E +E  E E E   +E  E E E +E  E E E
|-(2)---0-2-(2)---0-2-|-(2)-----7-(7)-----7-|
|-----0---------0-----|-----0-0-------7-9---|
|---------------------|---------------------|
|---------------------|---------------------|


  +E  E E E +E  E E +E    Q   E E E E E E
|-(7)-----7-(7)---------|-----------------|
|-----7-9-------7-9-(9)-|-------0-0-0-----|
|-----------------------|----/4-7-7-7---0-|
|-----------------------|-----------------|


  E E  E E E E E E   E E  E E E E E E   E E  E E E E E E
|------------------|------------------|------------------|
|-0-0----0---0-----|---0----0---0-----|---0----0---0-----|
|-7-7-/4---2p0-0-0-|-0---/4---2-0-----|-0---/4---2-0-----|
|------------------|--------------2-4-|--------------2-4-|


  E E  E E E E E E   E E  E E E E E E   E E  E E E E E E
|------------------|------------------|------------------|
|---0----0---0-----|---0----0---0-----|---0----0---0-----|
|-0---/4---2-0-----|-0---/4---2-0-----|-0---/4---2-0-----|
|--------------2-4-|--------------2-4-|--------------2-4-|


  E E E E E E E E   E E Q  E E E E   Q  S S E E E E E   H    H
|-----------------|----------------|------------------|-----------*|
|-----------------|----------------|------------------|-----------*|
|-0-5-4-2-0-------|-0-4--------0-0-|-0--2-0-0---0-0-2-|-0---------*|
|-----------4-2-4-|--------2-4-----|----------4-------|-----------*|


Duration Legend
---------------
W - whole; H - half; Q - quarter; E - 8th; S - 16th; T - 32nd; X - 64th; a - acciaccatura
+ - note tied to previous; . - note dotted; .. - note double dotted
Uncapitalized letters represent notes that are staccato (1/2 duration)
Irregular groupings are notated above the duration line
Duration letters will always appear directly above the note/fret number it represents the
duration for.  Duration letters with no fret number below them represent rests.  Multi-
bar rests are notated in the form Wxn, where n is the number of bars to rest for.  Low
melody durations appear below the staff

Tablature Legend
----------------
 h   - hammer-on
 p   - pull-off
 b   - bend
 pb  - pre-bend
 r   - bend release (if no number after the r, then release immediately)
 /\  - slide into or out of (from/to "nowhere")
 s   - legato slide
 S   - shift slide
  - natural harmonic
[n]  - artificial harmonic
n(n) - tapped harmonic
 ~   - vibrato
 tr  - trill
 T   - tap
 TP  - trem. picking
 PM  - palm muting
\n/  - tremolo bar dip; n = amount to dip
 \n  - tremolo bar down
 n/  - tremolo bar up
/n\  - tremolo bar inverted dip
 =   - hold bend; also acts as connecting device for hammers/pulls
 <>  - volume swell (louder/softer)
 x   - on rhythm slash represents muted slash
 o   - on rhythm slash represents single note slash

Misc Legend
-----------
 |  - bar
||  - double bar
||o - repeat start
o|| - repeat end
*|  - double bar (ending)
 :  - bar (freetime)
 $  - Segno
 &  - Coda
Tempo markers -  = BPM(8/16=s8/s16), where s8 = swing 8ths, s16 = swing 16ths


***************************************************************************************
***************************************************************************************





Comments


Popular Led Zeppelin tabs & chords
Moby Dick 3 Bass Tabs
Living Loving Maid Chords
Down By The Seaside Drum Tabs
Tangerine 1 Drum Tabs
Bron Yr Aur Stomp 1 Tabs
I Cant Quit You 2 Tabs
Tangerine 3 Tabs
That's The Way Tabs
The Girl I Love Bbc Sessions 1 Tabs
Since Ive Been Loving You Ukulele


Song lyrics



↑ Back to top | Tablatures and chords are parodies/interpretations of the original songs. You may use it for private study, scholarship, research or language learning purposes only
© 2014 AZChords.com Contact us | Privacy policy | DMCA | Add/correct tabs | Request tabs | Top 50 tabs