>
 >
Bron Yr Aur Stomp 2

Bron Yr Aur Stomp 2 Guitar Tabs

Led Zeppelin - Bron Yr Aur Stomp 2 chords, tabs, tablatures, lyrics

Guitar lessons | Add/correct | Request | Top 50 tabs Artists:  A B C D E F G H I J K L M N O P Q R S T U V W X Y Z 0-9

Bron Yr Aur Stomp 2 Guitar Tabs – Led Zeppelin

CD, Sheet music, Poster

Do you like Bron Yr Aur Stomp 2? Share with your friends now
TabsTabs v2Tabs v3
#------------------------------------------------------------------------------##
[two versions]



|-----------0------------------------0------------------------0-|
|--------0--------------0---------0--------------0---------0----|
|-----0--------------0---------0--------------0---------0-------|
|-----------------0------------------------0--------------------|
|-/3-----------------------/3-----------------------/3----------|
|--------------0------------------------0-----------------------|


|-----------------------0------------------------0--------------|
|----------0---------0--------------0---------0--------------0--|
|-------0---------0--------------0---------0--------------0-----|
|----0------------------------0------------------------0--------|
|-------------/3-----------------------/3-----------------------|
|-0------------------------0------------------------0-----------|

                                     p
|-----------0-----------------------3-0-------------------------|
|--------0--------------0--2-------------2-----0-----------0----|
|-----0--------------0--------0-------------0-----------0-------|
|-----------------0--------------2-------2-----------0----------|
|-/3-----------------------2----------2-----------3-------------|
|--------------0----------------------------------------0-----0-|


|----------------0-----------0----------------------------------|
|-------5--------------------0-----------0-----------2----------|
|----0-----4-----------4-----0--------0-----------------0-------|
|-0-----------0-----------0--------0-----------0-----------2----|
|-------5-----------5-----------3--------------------2----------|
|-------------------------------------0-----0-----0-------------|

   p
|-3-0-----------------------------------------0-----------------|
|------2-----------------0-----------5--------------------0-----|
|---------0-----------0-----------0-----4-----------4-----------|
|---------------0--------------0-----------0-----------0--------|
|---2--------3-----3-----------------5-----------5-----------3--|
|---------------------0-----0-----------------------------------|


|----------------------------------------0----------------------|
|-------0--------------------0--------------0-------0-----------|
|----0--------------0-----------------0----------0-----------0--|
|-0-----------0--------0-----------0----------------------0-----|
|-------------------------0-----0-----------0/3-----------------|
|----0-----0-----0--5-----------------0----------------0--------|

                                                        p
|----------------------0-------------------------------3-0------|
|----------0--------------0-------0-----------2-------------2---|
|-0-----------------0----------0-----------0-----0--------------|
|----0-----------0----------------------0-----------2-------2---|
|-------0-----0-----------0/3-----------------2----------2------|
|-5-----------------0----------------0--------------------------|


|-------------------------------------0-----------0-------------|
|----0-----------0-----------5--------------------0-----------0-|
|-0-----------0-----------0-----4-----------4-----0--------0----|
|----------0-----------0-----------0-----------0--------0-------|
|-------3--------------------5-----------5-----------3----------|
|-------------0-----0--------------------------------------0----|


|---------------------------------------------------------------|
|--------------------0-----------2-----------4-----------0------|
|-------0---------0-----------0-----------4-----------0---------|
|----0---------0-----------2-----------4-----------4------------|
|----------/3-----------2-----------0-----------0-----------/3--|
|-0-------------------------------------------------------------|


|---------------------------------------------------------------|
|-------0-----------2-----------4-----------0------------0------|
|----0-----------0-----------4-----------0------------0---------|
|-0-----------2-----------4-----------4------------0------------|
|----------2-----------0-----------0-----------/3-----------2---|
|---------------------------------------------------------------|


|--------------------h-p----------h-p---------------------------|
|-------2/4---------4-5-4--------4-5-4--------4-----------5-----|
|----0-----------4------------4------------4-----------4--------|
|-2-----------4------------4------------4-----------4-----------|
|----------0------------0------------0-----------0--------------|
|---------------------------------------------------------------|


|---------------------------------------------------------------|
|----------4-----------4/5--------5--7--------0-------------0---|
|-------4-----------4----------5-----------7-------------0------|
|----4-----------4----------5-----------7-------------0---------|
|-0-----------0----------------------------------0/3------------|
|------------------------5---------5/7-----7--------------------|


|---------------------------------------------------------------|
|----------0-------------5--7--------0-------------0------------|
|-------0-------------5-----------7-------------0-----------0---|
|----0-------------5-----------7-------------0-----------0------|
|---------------------------------------0/3---------------------|
|-0-----------2/5---------5/7-----7-------------------0---------|


|---------------------------------------------------------------|
|-0-----------5--7--------0-------------0-----------0-----------|
|----------5-----------7-------------0-----------0-----------5--|
|-------5-----------7-------------0-----------0-----------5-----|
|----------------------------0/3--------------------------------|
|----5---------5/7-----7-------------------0-----------5--------|

                                                  p
|------------------------------------------------3-0------------|
|-5--7--------0-------------0-----------2-------------2-----0---|
|----------7-------------0-----------0-----0-------------0------|
|-------7-------------0-----------0-----------2-------2---------|
|----------------0/3--------------------2----------2------------|
|--5/7-----7-------------------0--------------------------------|


|-------------------------------0-----------0-------------------|
|----------0-----------5--------------------0-----------0-------|
|-------0-----------0-----4-----------4-----0--------0----------|
|----0-----------0-----------0-----------0--------0-----------0-|
|-3--------------------5-----------5-----------3----------------|
|-------0-----0--------------------------------------0-----0----|

               p
|-------------3-0------------------------------------------0----|
|----2-------------2------------------0-----------5-------------|
|-0-----0-------------0------------0-----------0-----4----------|
|----------2-----------------0--------------0-----------0-------|
|----2----------2---------3-----3-----------------5-----------5-|
|----------------------------------0-----0----------------------|


|-------0--------------------------------------------0----------|
|-------0-----------0--------------------0--------------0-------|
|-4-----0--------0--------------0-----------------0----------0--|
|----0--------0-----------0--------0-----------0----------------|
|----------3--------------------------0-----0-----------0/3-----|
|----------------0-----0-----0--5-----------------0-------------|


|----------------------------------0----------------------------|
|-0--------------------0--------------0-------0-----------2-----|
|----------0--0-----------------0----------0-----------0-----0--|
|-------0--------0-----------0----------------------0-----------|
|-------------------0-----0-----------0/3-----------------2-----|
|----0--------5-----------------0----------------0--------------|

      p
|----3-0-----------------------------------------0-----------0--|
|---------2-----0-----------0-----------5--------------------0--|
|------------0-----------0-----------0-----4-----------4-----0--|
|-2-------2-----------0-----------0-----------0-----------0-----|
|------2-----------3--------------------5-----------5-----------|
|------------------------0-----0--------------------------------|


|--------------------------------------------------------h-p----|
|----------0--------------------0-----------2/4---------4-5-4---|
|-------0-----------0--------0-----------0-----------4----------|
|----0-----------0--------0-----------2-----------4-------------|
|-3--------------------3-----------2-----------0----------------|
|-------0-----0-------------------------------------------------|


|------------------------------------------------h-p------------|
|----------0------------0-----------2/4---------4-5-4--------0--|
|-------4------------0-----------0-----------4------------4-----|
|----4------------0-----------2-----------4------------4--------|
|-0-----------/3-----------2-----------0------------0-----------|
|---------------------------------------------------------------|


|------------------------------------h-p------------------------|
|-----------0-----------2/4---------4-5-4-----4-----------5-----|
|--------0-----------0-----------4---------------------4--------|
|-----0-----------2-----------4------------4--------4-----------|
|-/3-----------2-----------0------------0--------0-----------0--|
|---------------------------------------------------------------|


|---------------------------------------------------------------|
|-------4-----------5-----------4/5--------5----------0---------|
|----4-----------4-----------4----------5----------7------------|
|-4-----------4-----------4----------5----------7-----------0---|
|----------0-----------0-------------------------------0/3------|
|---------------------------------5---------5/7-----------------|


|---------------------------------------------------------------|
|----0-----------0-------------5-/7-----0-----------0-----------|
|-0-----------0-------------5--------7-----------0-----------0--|
|----------0-------------5--------------------0-----------0-----|
|----------------------------------------0/3--------------------|
|-------0-----------2/5---------5/7--------------------0--------|


|---------------------------------------------------------------|
|-0-------------5-/7-----0-----------0-----------0--------------|
|------------5--------7-----------0-----------0-------------5---|
|---------5--------------------0-----------0-------------5------|
|-------------------------0/3-----------------------------------|
|----2/5---------5/7--------------------0-----------2/5---------|



|---------------------------------------------------------------|
|-5-/7--7--------------4-----------5-----------4-----------5----|
|----------7--------4-----------4-----------4-----------4-------|
|----------------4-----------4-----------4-----------4----------|
|-------------0-----------0-----------0-----------0-----------0-|
|--5/7----------------------------------------------------------|


|---------------------------------------------------------------|
|-------4-----------5-----------4-----------4-----------0-------|
|----4-----------4-----------4-----------4-----------0--------5-|
|-4-----------4-----------4-----------4-----------5--------7----|
|----------0-----------0-----------0-----------7----------------|
|---------------------------------------------------------------|

        slower..
|----0-----------0-----------0-----------0-----------0----------|
|-0-----------5-----------5-----------5-----------5-----------5-|
|----------7-----------7-----------7-----------7-----------7----|
|-------0-----------0-----------0-----------7-----------0-------|
|---------------------------------------------------------------|
|---------------------------------------------------------------|

                 C - let ring
|-0-----------0--X-----------|
|----------5-----0-----------|
|-------7--------0-----------|
|----7-----------0-----------|
|----------------3-----------|
|----------------0-----------|





*****************************   BRON-YR-AUR   **********************************
JIMMY PAGE 

 ->    ...  pick-slide
 //    ...  hammer-on
 \\    ...  pull-off

(e)-->e
(b)-->up to c
(g)-->g
(D)-->down to C
(A)-->A
(E)-->down to C

-------------------------------------------------------------0----------
-------------0-----------------------0----------------------------------
-------0-----------0-----------0-----------0-----------0-----------0----
----------0-----------0-----------0-----------0-----------0-----------0-
-0->3--------------------0->3--------------------0->3-------------------
----------------0-----------------------0-----------------------0-------

-------------0-----------------------0-----------------------0----------
------------------------------------------------------------------------
-------0-----------0-----------0-----------0-----------0-----------0----
----------0-----------0-----------0-----------0-----------0-----------0-
-0->3--------------------0->3--------------------0->3-------------------
----------------0-----------------------0-----------------------0-------

-------------0-----------
-------------------------
-------0-----------0-----
----------0-----------0--
-0->3--------------------
----------------0--------

begin 1:
----------3\\0----------------------------------
-2--------------2-----0--------------0----------
----0--------------------------0-----------0----
-------2-----------2--------------0-----------0-
-2-----------2-----------0->3-------------------
----------------------------------------0-------

-1--------0-----------------------------------------------3\\0----------
----------------------0--------------0-----------2--------------2-----0-
----0-----------0--------------0-----------0--------0-------------------
-------2-----------2--------------0-----------0--------2-----------2----
-2-----------2-----------0->3--------------------2-----------2----------
----------------------------------------0-------------------------------

-------------------------1--------0-------------------------------------
-------------0--------------------------------0--------------0----------
-------0-----------0--------0-----------0--------------0-----------0----
----------0-----------0--------2-----------2--------------0-----------0-
-0->3--------------------2-----------2-----------0->3-------------------
----------------0-----------------------------------------------0-------

-------------------------0-------------------------
----------0-----------------------------0----------
-------0-----------0--------------0-----------0----
----0-----------------0--------------0-----------0-
----------------------------0->3-------------------
-5-----------5->9--------------------------0-------

-------------------------0-------------------------
----------0-----------------------------0----------
-------0-----------0--------------0-----------0----
----0-----------------0--------------0-----------0-
----------------------------0->3-------------------
-5-----------5->9--------------------------0-------

----------3\\0-----------------------------------1--------0-------------
-2--------------2-----0--------------0--------------------------------0-
----0--------------------------0-----------0--------0-----------0-------
-------2-----------2--------------0-----------0--------2-----------2----
-2-----------2-----------0->3--------------------2-----------2----------
----------------------------------------0-------------------------------

--------------------------------------------------------
-------------0---------------------------0-----------2--
-------0-----------0------------------0-----------0-----
----------0-----------0------------0-----------2--------
-0->3------------------------0->3-----------2-----------
----------------0---------------------------------------

--------------------------------------------------------
----------3>4//5--4--------0--------------0-----------2-
-------3->4----------4-----------------0-----------0----
----3->4----------------4-----------0-----------2-------
-0----------------0-----------0->3-----------2----------
--------------------------------------------------------

--------------------------------------------------------
----------3>4-----------0--------------0-----------2----
-------3->4----------4--------------0-----------0-------
----3->4----------4--------------0-----------2----------
-0-------------0-----------0->3-----------2-------------
--------------------------------------------------------

---------------------------------------------------------------------
----------3>4//5--4--------4//5--4--------4-----------5----------4---
-------3->4----------4--------------4-----------4-----------4--------
----3->4----------------4--------------4-----------4-----------4-----
-0----------------0--------------0-----------0-----------0-----------
---------------------------------------------------------------------

-------------------------- ----------------------------]
-4->5--------5--5->7------ --0--------------0----------]
-------5--------------7--- -----------0-----------0----]repeat four times
----------5--------------7 --------------0-----------0-]
-4->5-----------5->7------ -----0->3-------------------]
----------------5->7------ --------------------0-------]
end :1 

[repeat 1 but stop at the space (not at ])

-------------------------------------------------------------
----------4-----------5-----------4-----------5-----------4--
-------4-----------4-----------4-----------4-----------4-----
----4-----------4-----------4-----------4-----------4--------
-0-----------0-----------0-----------0-----------0-----------
-------------------------------------------------------------

-------------------------0-----------0-----------0-----------0-----------0-
----------0-----------0-----------5-----------5-----------5-----------5----
-------4-----------5-----------7-----------7-----------7-----------7-------
----4-----------7-----------0-----------7-----------0-----------7----------
-2-------------------------------------------------------------------------
-------------0-------------------------------------------------------------

----------0-----------0------0-
-------5-----------5--------0--
----7-----------7----------0---
-0-----------7------------0----
-------------------------3-----
------------------------0------





Comments


Popular Led Zeppelin tabs & chords
Heartbreaker 3 Bass Tabs
The Crunge 2 Bass Tabs
Street Corner Girl Chords
In The Light Drum Tabs
Achilles Last Stand 3 Tabs
Black Dog Live (Intro) Tabs
Jennings Farm Blues Tabs
No Quarter 4 Tabs
The Girl I Love 2 Tabs
Poor Tom Ukulele


Song lyrics



↑ Back to top | Tablatures and chords are parodies/interpretations of the original songs. You may use it for private study, scholarship, research or language learning purposes only
© 2014 AZChords.com Contact us | Privacy policy | DMCA | Add/correct tabs | Request tabs | Top 50 tabs