» » »

Led Zeppelin, Bron Y Aur Stomp Bass tabs (ver.2)

Artists:  A B C D E F G H I J K L M N O P Q R S T U V W X Y Z # 

Bron Y Aur Stomp Bass tabs (ver.2)

Led Zeppelin Tabs
Rating:
0/5 (0 votes)
Hard to play? Try these video lessons and learn fast.
                -------------------------------------------------------------------------------
			     Bron-Y-Aur Stomp - Led Zeppelin
-------------------------------------------------------------------------------


Tuning: Standard

Verses
|5-------------3-|4-5----5-----3--|4-5----5-----3--|
|------------5---|------5-----5---|------5-----5---|
|----------------|----------------|----------------|
|----------------|----------------|----------------|


|4/5-5---5---3---|----------------|----------------|
|------5-------3-|5------------3/4/5--------------4|
|----------------|----------------|----------------|
|----------------|----------------|----------------|


Chorus
4/4		 9/8		    4/4
|2--------------2/5-----------------|----------------|
|----------------|------------5/8/10|5-----5---5-8/10|
|----------------|------------------|----5-----------|
|----------------|------------------|----------------|


7/8	       4/4		9/8
|--------------|----------------|------------------|
|5-----5---5---|7-----7-7-7-7-7/|10----------5-8/10|
|----5-------8-|----------------|------------------|
|--------------|----------------|------------------|


4/4		 7/8
|----------------|--------------|
|5-----5---5-8/10|5-----5-4---4-|
|----5-----------|----5----535-5|
|----------------|--------------|


4/4
|----------------|----------------|
|5---------------|5---------------|
|----------------|----------------|
|----------------|----------------|


Chorus (My My...)

<6 Bar Rest>

4/4		 9/8		    4/4
|----------------|--------5---------|----------------|
|----------------|-----57-----5-8/10|5-----5---5-8/10|
|----------------|3--57-------------|----5-----------|
|5-5--5--5--5--5-|------------------|----------------|


7/8	       4/4		9/8
|--------------|----------------|--------5---------|
|5-----5---5-3-|7-7---7-5-2-----|-----57-----5-8/10|
|----5---------|------------3-5-|3--57-------------|
|--------------|----------------|------------------|


4/4		 7/8
|----------------|--------------|
|5-----5---5-8/10|5-----5-------|
|----5-----------|----5-----5---|
|----------------|--------------|


4/4
|----------------|----------------|
|----------------|----------------|
|----------------|----------------|
|3---------------|----------------|
            

comments powered by Disqus
↑ Back to top | Led Zeppelin Bass for Bron Y Aur Stomp. Lyrics for acoustic guitar and electric guitar. Tablatures and chords are parodies/interpretations of the original songs. You may use it for private study, scholarship, research or language learning purposes only