>
 >
Bron Y Aur Stomp Complete

Bron Y Aur Stomp Complete Guitar Tabs

Led Zeppelin - Bron Y Aur Stomp Complete chords, tabs, tablatures, lyrics

Guitar lessons | Add/correct | Request | Top 50 tabs Artists:  A B C D E F G H I J K L M N O P Q R S T U V W X Y Z 0-9

Bron Y Aur Stomp Complete Guitar Tabs – Led Zeppelin

CD, Sheet music, Poster

Do you like Bron Y Aur Stomp Complete? Share with your friends now
Tabs
Bron-y-aur stomp                                 


                                                                    Led Zeppelin
Acoustic Guitar 1



                                                                       
F||-------------|----------0--------|-------------|----------0--------|
A||--12----7----|------3-------3----|--12----7----|------3-------3----|
F||--12----7----|--2/4---4-------4--|--12----7----|--2/4-------4------|
C||--12----7----|-------------------|--12----7----|--------5-------5--|
F||--12----7----|------------0------|--12----7----|-------------------|
C||--------7----|-------------------|--------7----|-------------------|


                                                                     
--------0-------0-------0-------|----------0-------0----------------|
----3-------3-------3-----------|------3-------3-------3---3---0----|
--4-------4-------4-------2--0--|--2/4-------4-------4-------2---0--|
------5-------5-------5---------|--------5-------5-------5----------|
--------------------------------|-----------------------------------|
--------------------------------|-----------------------------------|


                                                                       
----------0-------0----------------|----------------------------------|
------3-------3-------3---3---0----|----------3-----3-------3---3--3--|
--2/4-------4-------4-------2---0--|--2/4-0-0---4h0-4-------0-0-0--0--|
--------5-------5-------5----------|----------------5-0-0h2-----------|
-----------------------------------|----------------------------------|
-----------------------------------|----------------------------------|


                                                                     
----------------------------------|---------------------------------|
--------3-3-----3-------3-3-------|----3-----3-----3-3-----3-----3--|
--2/4-0-0---4h0-0-0-2h0-0------0--|--2/4-0-0---4h0-----4h0-0--2--0--|
----------------------------2--0--|---------------------------------|
----------------------------------|---------------------------------|
----------------------------------|---------------------------------|


                                                                      
----------------------------------|----------------------------------|
------3---3---3---3---3---3----3--|------3---3---3---3---3---3-------|
------0-0-2h0---0---0---0---------|------0-0-2h0---0---0---0------0--|
--0h2-----------------------2--0--|--0h2-----------------------2--0--|
----------------------------------|----------------------------------|
----------------------------------|----------------------------------|


                                                     
-----------------------|----------------------------|
--3-3------------------|-----0---0-0--------------0-|
---------3--3-3-5--5-x-|--0--0---0-0--3--3-3-5--5-0-|
------0--3--3-3-5--5-x-|-----0---0-0--3--3-3-5--5---|
---------3------5--5-x-|-----0---0-0--3--3-3-5--5---|
-----------------------|----------------------------|


                                                           
----------------------------|-----------------------------|
-----0-0--0-0-x-------------|-----0-0--0-0-x--------------|
-----0-0--0-0-x-3--3--5--5--|-----0-0--0-0-x-3--3-3-5--5--|
--0--0-0--0-0-x-3--3--5--5--|--0--0-0--0-0-x-3--3-3-5--5--|
--0--0-0--0-0-x-3--3--5--5--|--0--0-0--0-0-x-3--3-3-5--5--|
----------------------------|-----------------------------|


                                                                     
---------------------------------|----------------------------------|
--0--0-0-0-0-0-0-0-0-0-0-0-0-0-0-|--0-0-0-0-0-0-0-0-0-0-0-0-0-0-0-0-|
--0--0-0-0-0-0-0-0-0-0-0-0-0-0-0-|--0-0-0-0-0-0-0-0-0-0-0-0-0-0-0-0-|
--0--0-0-0-0-0-0-0-0-0-0-0-0-0-0-|--0-0-0-0-0-0-0-0-0-0-0-0-0-0-0-0-|
--0--0-0-0-0-0-0-0-0-0-0-0-0-0-0-|--0-0-0-0-0-0-0-0-0-0-0-0-0-0-0-0-|
---------------------------------|----------------------------------|


                                                                
-------------------------------|-------------------------------|
--0--0--0-0-0----0---0---------|--0--0--0-0-0----0---0---------|
--0--0--0-0-0----0---0---------|--0--0--0-0-0----0---0---------|
--0--0--0-0-0--3h0-0-----0-0---|--0--0--0-0-0--3h0-0-----0-0---|
--0--0--0-0-0--------3h0-0-----|--0--0--0-0-0--------3h0-0-----|
---------------------------0h3-|---------------------------0h3-|


                                                                
-------------------------------|-------------------------------|
--0--0--0-0-0----0---0---------|--0--0--0-0-0----0---0---------|
--0--0--0-0-0----0---0---------|--0--0--0-0-0----0---0---------|
--0--0--0-0-0--3h0-0-----0-0---|--0--0--0-0-0--3h0-0-----0-0---|
--0--0--0-0-0--------3h0-0-----|--0--0--0-0-0--------3h0-0-----|
---------------------------0h3-|---------------------------0h3-|


                                                                
-------------------------------|-------------------------------|
--0--0--0-0-0----0---0---------|--0--0--0-0-0----0---0---------|
--0--0--0-0-0----0---0---------|--0--0--0-0-0----0---0---------|
--0--0--0-0-0--3h0-0-----0-0---|--0--0--0-0-0--3h0-0-----0-0---|
--0--0--0-0-0--------3h0-0-----|--0--0--0-0-0--------3h0-0-----|
---------------------------0h3-|---------------------------0h3-|


                                                          
----------------------------|----------------------------|
--5--5--5-5-5--5-5-5--0--3--|--4--5--5-5-0--5--5-5-------|
--5--5--5-5-5--5-5-5--0--3--|--4--5--5-5-0--5--5-5-0--3--|
--5--5--5-5-5--5-5-5--0--3--|--4--5--5-5-5--5--5-5-0--3--|
--5--5--5-5-5--5-5-5--0--3--|--4--5--5-5-0--5--5-5-0--3--|
----------------------------|----------------------------|


                                                          
----------------------------|----------------------------|
--4--5--5-5-0--5--5-5-------|--4--5--5-5-0--5--5-5-------|
--4--5--5-5-0--5--5-5-0--3--|--4--5--5-5-0--5--5-5-0--3--|
--4--5--5-5-5--5--5-5-0--3--|--4--5--5-5-5--5--5-5-0--3--|
--4--5--5-5-0--5--5-5-0--3--|--4--5--5-5-0--5--5-5-0--3--|
----------------------------|----------------------------|


                                                                
-------------------------------|-------------------------------|
--0--0--0-0-0----0---0---------|--0--0--0-0-0----0---0---------|
--0--0--0-0-0----0---0---------|--0--0--0-0-0----0---0---------|
--0--0--0-0-0--3h0-0-----0-0---|--0--0--0-0-0--3h0-0-----0-0---|
--0--0--0-0-0--------3h0-0-----|--0--0--0-0-0--------3h0-0-----|
---------------------------0h3-|---------------------------0h3-|


                                                          
----------------------------|----------------------------|
--5--5--5-5-5--5-5-5--0--3--|--4--5--5-5-0--5--5-5-------|
--5--5--5-5-5--5-5-5--0--3--|--4--5--5-5-0--5--5-5-0--3--|
--5--5--5-5-5--5-5-5--0--3--|--4--5--5-5-5--5--5-5-0--3--|
--5--5--5-5-5--5-5-5--0--3--|--4--5--5-5-0--5--5-5-0--3--|
----------------------------|----------------------------|


                                                          
----------------------------|----------------------------|
--4--5--5-5-0--5--5-5-------|--4--5--5-5-0--5--5-5-------|
--4--5--5-5-0--5--5-5-0--3--|--4--5--5-5-0--5--5-5-0--3--|
--4--5--5-5-5--5--5-5-0--3--|--4--5--5-5-5--5--5-5-0--3--|
--4--5--5-5-0--5--5-5-0--3--|--4--5--5-5-0--5--5-5-0--3--|
----------------------------|----------------------------|


                                                                
-------------------------------|-------------------------------|
--0--0--0-0-0----0---0---------|--0--0--0-0-0----0---0---------|
--0--0--0-0-0----0---0---------|--0--0--0-0-0----0---0---------|
--0--0--0-0-0--3h0-0-----0-0---|--0--0--0-0-0--3h0-0-----0-0---|
--0--0--0-0-0--------3h0-0-----|--0--0--0-0-0--------3h0-0-----|
---------------------------0h3-|---------------------------0h3-|


                                                                              
----------------------------|-----------------------|-----------|------------|
--2--2--2-2--2-2--2-2--2-2--|--5--6--6-5-5-5-5--5-5-|--0--3--5--|--0--0-0-0--|
--2--2--2-2--2-2--2-2--2-2--|--5--5--5-5-5-5-5--5-5-|--0--3--5--|--0--0-0-0--|
--2--2--2-2--2-2--2-2--2-2--|--5--5--5-5-5-5-5--5-5-|--0--3--5--|--0--0-0-0--|
--2--2--2-2--2-2--2-2--2-2--|--5--5--5-5-5-5-5--5-5-|--0--3--5--|--0--0-0-0--|
----------------------------|-----------------------|-----------|------------|


                                                    
---------|-----------|------------|----------------|
--0--0-0-|--0--3--5--|--0--0-0-0--|--0--0-0-0-0-3--|
--0--0-0-|--0--3--5--|--0--0-0-0--|--0--0-0-0-0-3--|
--0--0-0-|--0--3--5--|--0--0-0-0--|--0--0-0-0-0-3--|
--0--0-0-|--0--3--5--|--0--0-0-0--|--0--0-0-0-0-3--|
---------|-----------|------------|----------------|


                                                                                
-----------------------------|------------------------|-----------|------------|
--2--2--2-2-2--2--2-2-2-2-2--|--5--6-6-6-5-5-5-5--5-5-|--0--3--5--|--0--0-0-0--|
--2--2--2-2-2--2--2-2-2-2-2--|--5--5-5-5-5-5-5-5--5-5-|--0--3--5--|--0--0-0-0--|
--2--2--2-2-2--2--2-2-2-2-2--|--5--5-5-5-5-5-5-5--5-5-|--0--3--5--|--0--0-0-0--|
--2--2--2-2-2--2--2-2-2-2-2--|--5--5-5---5-5-5-5--5-5-|--0--3--5--|--0--0-0-0--|
-----------------------------|------------------------|-----------|------------|


                                                    
---------|-----------|------------|----------------|
--0--0-0-|--0--3--5--|--0--0-0-0--|--0--0-0-0-0-3--|
--0--0-0-|--0--3--5--|--0--0-0-0--|--0--0-0-0-0-3--|
--0--0-0-|--0--3--5--|--0--0-0-0--|--0--0-0-0-0-3--|
--0--0-0-|--0--3--5--|--0--0-0-0--|--0--0-0-0-0-3--|
---------|-----------|------------|----------------|


                                                                
-------------------------------|-------------------------------|
--0--0--0-0-0----0---0---------|--0--0--0-0-0----0---0---------|
--0--0--0-0-0----0---0---------|--0--0--0-0-0----0---0---------|
--0--0--0-0-0--3h0-0-----0-0---|--0--0--0-0-0--3h0-0-----0-0---|
--0--0--0-0-0--------3h0-0-----|--0--0--0-0-0--------3h0-0-----|
---------------------------0h3-|---------------------------0h3-|


                                                            
-----------------------------|-----------------------------|
--5-5-5--5-5-5--5-5-5--0--3--|--4-4-5--5-5-0--5--5-5-0--3--|
--5-5-5--5-5-5--5-5-5--0--3--|--4-4-5--5-5-0--5--5-5-0--3--|
--5-5-5--5-5-5--5-5-5--0--3--|--4-4-5--5-5-0--5--5-5-0--3--|
--5-5-5--5-5-5--5-5-5--0--3--|--4-4-5--5-5-0--5--5-5-0--3--|
-----------------------------|-----------------------------|


                                                            
-----------------------------|-----------------------------|
--4-4-5--5-5-0--5--5-5-0--3--|--4-4-5--5-5-0--5--5-5-0--3--|
--4-4-5--5-5-0--5--5-5-0--3--|--4-4-5--5-5-0--5--5-5-0--3--|
--4-4-5--5-5-0--5--5-5-0--3--|--4-4-5--5-5-0--5--5-5-0--3--|
--4-4-5--5-5-0--5--5-5-0--3--|--4-4-5--5-5-0--5--5-5-0--3--|
-----------------------------|-----------------------------|


                                                                
-------------------------------|-------------------------------|
--0--0--0-0-0----0---0---------|--0--0--0-0-0----0---0---------|
--0--0--0-0-0----0---0---------|--0--0--0-0-0----0---0---------|
--0--0--0-0-0--3h0-0-----0-0---|--0--0--0-0-0--3h0-0-----0-0---|
--0--0--0-0-0--------3h0-0-----|--0--0--0-0-0--------3h0-0-----|
---------------------------0h3-|---------------------------0h3-|


                                                            
-----------------------------|-----------------------------|
--5-5-5--5-5-5--5-5-5--0--3--|--4-4-5--5-5-0--5--5-5-0--3--|
--5-5-5--5-5-5--5-5-5--0--3--|--4-4-5--5-5-0--5--5-5-0--3--|
--5-5-5--5-5-5--5-5-5--0--3--|--4-4-5--5-5-0--5--5-5-0--3--|
--5-5-5--5-5-5--5-5-5--0--3--|--4-4-5--5-5-0--5--5-5-0--3--|
-----------------------------|-----------------------------|


                                                            
-----------------------------|-----------------------------|
--4-4-5--5-5-0--5--5-5-0--3--|--4-4-5--5-5-0--5--5-5-0--3--|
--4-4-5--5-5-0--5--5-5-0--3--|--4-4-5--5-5-0--5--5-5-0--3--|
--4-4-5--5-5-0--5--5-5-0--3--|--4-4-5--5-5-0--5--5-5-0--3--|
--4-4-5--5-5-0--5--5-5-0--3--|--4-4-5--5-5-0--5--5-5-0--3--|
-----------------------------|-----------------------------|


                                                                
-------------------------------|-------------------------------|
--0--0--0-0-0----0---0---------|--0--0--0-0-0----0---0---------|
--0--0--0-0-0----0---0---------|--0--0--0-0-0----0---0---------|
--0--0--0-0-0--3h0-0-----0-0---|--0--0--0-0-0--3h0-0-----0-0---|
--0--0--0-0-0--------3h0-0-----|--0--0--0-0-0--------3h0-0-----|
---------------------------0h3-|---------------------------0h3-|


                                                                              
----------------------------|-----------------------|-----------|------------|
--2--2--2-2--2-2--2-2--2-2--|--5--6--6-5-5-5-5--5-5-|--0--3--5--|--0--0-0-0--|
--2--2--2-2--2-2--2-2--2-2--|--5--5--5-5-5-5-5--5-5-|--0--3--5--|--0--0-0-0--|
--2--2--2-2--2-2--2-2--2-2--|--5--5--5-5-5-5-5--5-5-|--0--3--5--|--0--0-0-0--|
--2--2--2-2--2-2--2-2--2-2--|--5--5--5-5-5-5-5--5-5-|--0--3--5--|--0--0-0-0--|
----------------------------|-----------------------|-----------|------------|


                                                    
---------|-----------|------------|----------------|
--0--0-0-|--0--3--5--|--0--0-0-0--|--0--0-0-0-0-3--|
--0--0-0-|--0--3--5--|--0--0-0-0--|--0--0-0-0-0-3--|
--0--0-0-|--0--3--5--|--0--0-0-0--|--0--0-0-0-0-3--|
--0--0-0-|--0--3--5--|--0--0-0-0--|--0--0-0-0-0-3--|
---------|-----------|------------|----------------|


                                                                                
-----------------------------|------------------------|-----------|------------|
--2--2--2-2-2--2--2-2-2-2-2--|--5--6-6-6-5-5-5-5--5-5-|--0--3--5--|--0--0-0-0--|
--2--2--2-2-2--2--2-2-2-2-2--|--5--5-5-5-5-5-5-5--5-5-|--0--3--5--|--0--0-0-0--|
--2--2--2-2-2--2--2-2-2-2-2--|--5--5-5-5-5-5-5-5--5-5-|--0--3--5--|--0--0-0-0--|
--2--2--2-2-2--2--2-2-2-2-2--|--5--5-5---5-5-5-5--5-5-|--0--3--5--|--0--0-0-0--|
-----------------------------|------------------------|-----------|------------|


                                                    
---------|-----------|------------|----------------|
--0--0-0-|--0--3--5--|--0--0-0-0--|--0--0-0-0-0-3--|
--0--0-0-|--0--3--5--|--0--0-0-0--|--0--0-0-0-0-3--|
--0--0-0-|--0--3--5--|--0--0-0-0--|--0--0-0-0-0-3--|
--0--0-0-|--0--3--5--|--0--0-0-0--|--0--0-0-0-0-3--|
---------|-----------|------------|----------------|


                                                                     
-----0--0--0---------------0--0--0---------------0--0--0------------|
--13-15-15-15--0--0--0--13-15-15-15--0--0--0--13-15-15-15--0--0--0--|
--14-16-16-16--0--------14-16-16-16--0--------14-16-16-16--0--------|
--15-----------12-12-12-15-----------12-12-12-15-----------12-12-12-|
------------------12-12-----------------12-12-----------------12-12-|


               
--------------|
--3--5--0--0--|
--3--5--0--0--|
--3--5--0--0--|
--3--5--0--0--|
--------------|


                                                                     
-----0--0--0---------------0--0--0---------------0--0--0------------|
--13-15-15-15--0--0--0--13-15-15-15--0--0--0--13-15-15-15--0--0--0--|
--14-16-16-16--0--------14-16-16-16--0--------14-16-16-16--0--------|
--15-----------12-12-12-15-----------12-12-12-15-----------12-12-12-|
------------------12-12-----------------12-12-----------------12-12-|


               
--------------|
--3--5--0--0--|
--3--5--0--0--|
--3--5--0--0--|
--3--5--0--0--|
--------------|


                                                                     
-----0--0--0---------------0--0--0---------------0--0--0------------|
--13-15-15-15--0--0--0--13-15-15-15--0--0--0--13-15-15-15--0--0--0--|
--14-16-16-16--0--------14-16-16-16--0--------14-16-16-16--0--------|
--15-----------12-12-12-15-----------12-12-12-15-----------12-12-12-|
------------------12-12-----------------12-12-----------------12-12-|


               
--------------|
--3--5--0--0--|
--3--5--0--0--|
--3--5--0--0--|
--3--5--0--0--|
--------------|


                                                                     
-----0--0--0---------------0--0--0---------------0--0--0------------|
--13-15-15-15--0--0--0--13-15-15-15--0--0--0--13-15-15-15--0--0--0--|
--14-16-16-16--0--------14-16-16-16--0--------14-16-16-16--0--------|
--15-----------12-12-12-15-----------12-12-12-15-----------12-12-12-|
------------------12-12-----------------12-12-----------------12-12-|


                                                                      
--------------|------------------------------|-----------------------|
--3--5--0--0--|--2--2--2-2-2--2--2-2-2-2-2-2-|--5--5-6-5-5-5--5--5-0-|
--3--5--0--0--|--2--2--2-2-2--2--2-2-2-2-2-2-|--5--5-5-5-7-7--5--5-0-|
--3--5--0--0--|--2--2--2-2-2--2--2-2-2-2-2-2-|--5--5-5-5-5-5--5--5-0-|
--3--5--0--0--|--2--2--2-2-2--2--2-2-2-2-2-2-|--5--5-5-5-5-5--5--5-0-|
--------------|------------------------------|-----------------------|


                                                                             
-----------|------------|---------|-----------|------------|----------------|
--0--3--5--|--0--0-0-0--|--0--0-0-|--0--3--5--|--0--0-0-0--|--0--0-0-0-0-3--|
--0--3--5--|--0--0-0-0--|--0--0-0-|--0--3--5--|--0--0-0-0--|--0--0-0-0-0-3--|
--0--3--5--|--0--0-0-0--|--0--0-0-|--0--3--5--|--0--0-0-0--|--0--0-0-0-0-3--|
--0--3--5--|--0--0-0-0--|--0--0-0-|--0--3--5--|--0--0-0-0--|--0--0-0-0-0-3--|
-----------|------------|---------|-----------|------------|----------------|


                                                                                
------------------------------|-----------------------|-----------|------------|
--2--2--2-2-2--2--2-2-2-2-2-2-|--5--5-6-5-5-5--5--5-0-|--0--3--5--|--0--0-0-0--|
--2--2--2-2-2--2--2-2-2-2-2-2-|--5--5-5-5-7-7--5--5-0-|--0--3--5--|--0--0-0-0--|
--2--2--2-2-2--2--2-2-2-2-2-2-|--5--5-5-5-5-5--5--5-0-|--0--3--5--|--0--0-0-0--|
--2--2--2-2-2--2--2-2-2-2-2-2-|--5--5-5-5-5-5--5--5-0-|--0--3--5--|--0--0-0-0--|
------------------------------|-----------------------|-----------|------------|


                                                                   
---------|-----------|------------|----------------|--------------|
--0--0-0-|--0--3--5--|--0--0-0-0--|--0--0-0-0-0-3--|----3---------|
--0--0-0-|--0--3--5--|--0--0-0-0--|--0--0-0-0-0-3--|----4---------|
--0--0-0-|--0--3--5--|--0--0-0-0--|--0--0-0-0-0-3--|----5--0--0-5-|
--0--0-0-|--0--3--5--|--0--0-0-0--|--0--0-0-0-0-3--|--------------|
---------|-----------|------------|----------------|--------------|


                                                   
----0------------|--------------|----0------------|
------------3----|----3-3---3-3-|------------3----|
--4-----4-----4--|----4-4---4-4-|--4-----4-----4--|
------5----------|----5-5---5-5-|------5----------|
----------0------|--------------|----------0------|
-----------------|--------------|-----------------|


                                                                    
--------0---------------0--------|--------0-------0----------------|
----3-------3---3---3-------3----|----3-------3-------3------------|
--4-------4-------4-------2------|--4-------4-------4-----4/2----4-|
------5-------5-------5-------5--|------5-------5-------5------5---|
---------------------------------|---------------------------------|
---------------------------------|---------------------------------|


                                                                  
--------------------------------|--------------------------------|
--------3-------3-------3----0--|--0-----3-------3-------3----0--|
--4---4---4---4---4---4------0--|----0-0---4-------4----------0--|
----5-5-----5-5-----5-5---2--0--|------0-----5-5-----5-5---2--0--|
-----------------------------0--|------0-------7-------7------0--|
--------------------------------|--------------------------------|


                                                                   
----------------------------|----------------------------|--------|
--0-0-0--0--0-0-0--0---0-0--|--0-0-0--0--0---0-0--0--0-0-|--------|
--0-0-0--0--0-0-0--0---0-0--|--0-0-0--0--0---0-0--0--0-0-|--3--5--|
--0-0-0--0--0-0-0--0---0-0--|--0-0-0--0--0---0-0--0--0-0-|--3--5--|
--0-0-0--0--0-0-0--0---0-0--|--0-0-0--0--0---0-0--0--0-0-|--3--5--|
----------------------------|----------------------------|--------|


                                                                      
-------------------------|--------|-------------------------|--------|
--0--0-0-0-0-0-0-0-0-0-0-|--------|--0--0-0-0-0-0-0-0-0-0-0-|--------|
--0--0-0-0-0-0-0-0-0-0-0-|--3--5--|--0--0-0-0-0-0-0-0-0-0-0-|--3--5--|
--0--0-0-0-0-0-0-0-0-0-0-|--3--5--|--0--0-0-0-0-0-0-0-0-0-0-|--3--5--|
--0--0-0-0-0-0-0-0-0-0-0-|--3--5--|--0--0-0-0-0-0-0-0-0-0-0-|--3--5--|
-------------------------|--------|-------------------------|--------|


                                                        
--------------------------|----------------------------|
--0-0----0-0--0---0--0-0--|---0-0--0---0-0---0-0-0-0-0-|
--0-0----0-0--0---0--0-0--|---0-0--0---0-0---0-0-0-0-0-|
--0-0----0-0--0---0--0-0--|---0-0--0---0-0---0-0-0-0-0-|
--0-0----0-0--0---0--0-0--|---0-0--0---0-0---0-0-0-0-0-|
--------------------------|--------------------0-0-0-0-|


                                                                
-------------------------------|-------------------------------|
--0--0--0-0-0----0---0---------|--0--0--0-0-0----0---0---------|
--0--0--0-0-0----0---0---------|--0--0--0-0-0----0---0---------|
--0--0--0-0-0--3h0-0-----0-0---|--0--0--0-0-0--3h0-0-----0-0---|
--0--0--0-0-0--------3h0-0-----|--0--0--0-0-0--------3h0-0-----|
---------------------------0h3-|---------------------------0h3-|


                                                                
-------------------------------|-------------------------------|
--0--0--0-0-0----0---0---------|--0--0--0-0-0----0---0---------|
--0--0--0-0-0----0---0---------|--0--0--0-0-0----0---0---------|
--0--0--0-0-0--3h0-0-----0-0---|--0--0--0-0-0--3h0-0-----0-0---|
--0--0--0-0-0--------3h0-0-----|--0--0--0-0-0--------3h0-0-----|
---------------------------0h3-|---------------------------0h3-|


                                                            
-----------------------------|-----------------------------|
--5-5-5--5-5-5--5-5-5--0--3--|--4-4-5--5-5-0--5--5-5-0--3--|
--5-5-5--5-5-5--5-5-5--0--3--|--4-4-5--5-5-0--5--5-5-0--3--|
--5-5-5--5-5-5--5-5-5--0--3--|--4-4-5--5-5-0--5--5-5-0--3--|
--5-5-5--5-5-5--5-5-5--0--3--|--4-4-5--5-5-0--5--5-5-0--3--|
-----------------------------|-----------------------------|


                                                            
-----------------------------|-----------------------------|
--4-4-5--5-5-0--5--5-5-0--3--|--4-4-5--5-5-0--5--5-5-0--3--|
--4-4-5--5-5-0--5--5-5-0--3--|--4-4-5--5-5-0--5--5-5-0--3--|
--4-4-5--5-5-0--5--5-5-0--3--|--4-4-5--5-5-0--5--5-5-0--3--|
--4-4-5--5-5-0--5--5-5-0--3--|--4-4-5--5-5-0--5--5-5-0--3--|
-----------------------------|-----------------------------|


                                                                
-------------------------------|-------------------------------|
--0--0--0-0-0----0---0---------|--0--0--0-0-0----0---0---------|
--0--0--0-0-0----0---0---------|--0--0--0-0-0----0---0---------|
--0--0--0-0-0--3h0-0-----0-0---|--0--0--0-0-0--3h0-0-----0-0---|
--0--0--0-0-0--------3h0-0-----|--0--0--0-0-0--------3h0-0-----|
---------------------------0h3-|---------------------------0h3-|


                                                            
-----------------------------|-----------------------------|
--5-5-5--5-5-5--5-5-5--0--3--|--4-4-5--5-5-0--5--5-5-0--3--|
--5-5-5--5-5-5--5-5-5--0--3--|--4-4-5--5-5-0--5--5-5-0--3--|
--5-5-5--5-5-5--5-5-5--0--3--|--4-4-5--5-5-0--5--5-5-0--3--|
--5-5-5--5-5-5--5-5-5--0--3--|--4-4-5--5-5-0--5--5-5-0--3--|
-----------------------------|-----------------------------|


                                                            
-----------------------------|-----------------------------|
--4-4-5--5-5-0--5--5-5-0--3--|--4-4-5--5-5-0--5--5-5-0--3--|
--4-4-5--5-5-0--5--5-5-0--3--|--4-4-5--5-5-0--5--5-5-0--3--|
--4-4-5--5-5-0--5--5-5-0--3--|--4-4-5--5-5-0--5--5-5-0--3--|
--4-4-5--5-5-0--5--5-5-0--3--|--4-4-5--5-5-0--5--5-5-0--3--|
-----------------------------|-----------------------------|


                                                                
-------------------------------|-------------------------------|
--0--0--0-0-0----0---0---------|--0--0--0-0-0----0---0---------|
--0--0--0-0-0----0---0---------|--0--0--0-0-0----0---0---------|
--0--0--0-0-0--3h0-0-----0-0---|--0--0--0-0-0--3h0-0-----0-0---|
--0--0--0-0-0--------3h0-0-----|--0--0--0-0-0--------3h0-0-----|
---------------------------0h3-|---------------------------0h3-|


                                                                              
----------------------------|-----------------------|-----------|------------|
--2--2--2-2-2--2--2--2-2-2--|--5--5--5-5-5--5-5-5---|--0--3--5--|--0--0-0-0--|
--2--2--2-2-2--2--2--2-2-2--|--5--5--5-5-5--5-5-5---|--0--3--5--|--0--0-0-0--|
--2--2--2-2-2--2--2--2-2-2--|--5--5--5-5-5--5-5-5---|--0--3--5--|--0--0-0-0--|
--2--2--2-2-2--2--2--2-2-2--|--5--5--5-5-5--5-5-5---|--0--3--5--|--0--0-0-0--|
----------------------------|-----------------------|-----------|------------|


                                                                                
--------|-----------|------------|--------------|------------------------------|
--0---0-|--0--3--5--|--0--0-0-0--|--0---0-0--0--|--2--2--2-2-2--2--2-2-2-2-2-2-|
--0---0-|--0--3--5--|--0--0-0-0--|--0---0-0--0--|--2--2--2-2-2--2--2-2-2-2-2-2-|
--0---0-|--0--3--5--|--0--0-0-0--|--0---0-0--0--|--2--2--2-2-2--2--2-2-2-2-2-2-|
--0---0-|--0--3--5--|--0--0-0-0--|--0---0-0--0--|--2--2--2-2-2--2--2-2-2-2-2-2-|
--------|-----------|------------|--------------|------------------------------|


                                                                       
------------------------|-----------|--0--0-0-0--|--0--0--|-----------|
--5--6-6-6-5-5-5-5--5-5-|--0--3--5--|--0--0-0-0--|--0--0--|--0--3--5--|
--5--5-5-5-5-5-5-5--5-5-|--0--3--5--|--0--0-0-0--|--0--0--|--0--3--5--|
--5--5-5-5-5-5-5-5--5-5-|--0--3--5--|--0--0-0-0--|--0--0--|--0--3--5--|
--5--5-5---5-5-5-5--5-5-|--0--3--5--|--0--0-0-0--|--0--0--|--0--3--5--|
------------------------|-----------|------------|--------|-----------|


                                
--0---0-0--|------------------||
--0---0-0--|--------0---------||
--0---0-0--|------0-----------||
--0---0-0--|----0-------------||
--0---0-0--|--0---------------||
-----------|------------------||





Comments


Popular Led Zeppelin tabs & chords
The Ocean Bass Tabs
Gallows Pole Chords
Dazed And Confused Drum Tabs
Achilles Last Stand Tabs
Black Dog Tabs
Candy Store Rock Tabs
I'm Gonna Crawl 1 Tabs
The Girl I Love She Got Long Black Wavy Hair Tabs
The Girl I Love She Got Long Black Wavy Hair 1 Tabs
Traveling Riverside Blues 1 Tabs


Song lyrics



↑ Back to top | Tablatures and chords are parodies/interpretations of the original songs. You may use it for private study, scholarship, research or language learning purposes only
© 2014 AZChords.com Contact us | Privacy policy | DMCA | Add/correct tabs | Request tabs | Top 50 tabs