>
 >
Bron-Yr-Aur

Bron-Yr-Aur Guitar Tabs

Led Zeppelin - Bron-Yr-Aur chords, tabs, tablatures, lyrics

Guitar lessons | Add/correct | Request | Top 50 tabs Artists:  A B C D E F G H I J K L M N O P Q R S T U V W X Y Z 0-9

Bron-Yr-Aur Guitar Tabs – Led Zeppelin

CD, Sheet music, Poster

Do you like Bron-Yr-Aur? Share with your friends now
Tabs
*****************************   BRON-YR-AUR   **********************************
JIMMY PAGE 

 ->    ...  pick-slide
 //    ...  hammer-on
 \\    ...  pull-off

(e)-->e
(b)-->up to c
(g)-->g
(D)-->down to C
(A)-->A
(E)-->down to C

-------------------------------------------------------------0----------
-------------0-----------------------0----------------------------------
-------0-----------0-----------0-----------0-----------0-----------0----
----------0-----------0-----------0-----------0-----------0-----------0-
-0->3--------------------0->3--------------------0->3-------------------
----------------0-----------------------0-----------------------0-------

-------------0-----------------------0-----------------------0----------
-------0-----------0-----------0-----------0-----------0-----------0----
----------0-----------0-----------0-----------0-----------0-----------0-
-0->3--------------------0->3--------------------0->3-------------------
----------------0-----------------------0-----------------------0-------

-------------0-----------
-------------------------
-------0-----------0-----
----------0-----------0--
-0->3--------------------
----------------0--------

begin 1:
----------3\\0----------------------------------
-2--------------2-----0--------------0----------
----0--------------------------0-----------0----
-------2-----------2--------------0-----------0-
-2-----------2-----------0->3-------------------
----------------------------------------0-------

-1--------0-----------------------------------------------3\\0----------
----------------------0--------------0-----------2--------------2-----0-
----0-----------0--------------0-----------0--------0-------------------
-------2-----------2--------------0-----------0--------2-----------2----
-2-----------2-----------0->3--------------------2-----------2----------
----------------------------------------0-------------------------------

-------------------------1--------0-------------------------------------
-------------0--------------------------------0--------------0----------
-------0-----------0--------0-----------0--------------0-----------0----
----------0-----------0--------2-----------2--------------0-----------0-
-0->3--------------------2-----------2-----------0->3-------------------
----------------0-----------------------------------------------0-------

-------------------------0-------------------------
----------0-----------------------------0----------
-------0-----------0--------------0-----------0----
----0-----------------0--------------0-----------0-
----------------------------0->3-------------------
-5-----------5->9--------------------------0-------

-------------------------0-------------------------
----------0-----------------------------0----------
-------0-----------0--------------0-----------0----
----0-----------------0--------------0-----------0-
----------------------------0->3-------------------
-5-----------5->9--------------------------0-------

----------3\\0-----------------------------------1--------0-------------
-2--------------2-----0--------------0--------------------------------0-
----0--------------------------0-----------0--------0-----------0-------
-------2-----------2--------------0-----------0--------2-----------2----
-2-----------2-----------0->3--------------------2-----------2----------
----------------------------------------0-------------------------------

--------------------------------------------------------
-------------0---------------------------0-----------2--
-------0-----------0------------------0-----------0-----
----------0-----------0------------0-----------2--------
-0->3------------------------0->3-----------2-----------
----------------0---------------------------------------

--------------------------------------------------------
----------3>4//5--4--------0--------------0-----------2-
-------3->4----------4-----------------0-----------0----
----3->4----------------4-----------0-----------2-------
-0----------------0-----------0->3-----------2----------
--------------------------------------------------------

--------------------------------------------------------
----------3>4-----------0--------------0-----------2----
-------3->4----------4--------------0-----------0-------
----3->4----------4--------------0-----------2----------
-0-------------0-----------0->3-----------2-------------
--------------------------------------------------------

----------3>4//5--4--------4//5--4--------4-----------5----------4---
-------3->4----------4--------------4-----------4-----------4--------
----3->4----------------4--------------4-----------4-----------4-----
-0----------------0--------------0-----------0-----------0-----------

-------------------------- ----------------------------]
-4->5--------5--5->7------ --0--------------0----------]
-------5--------------7--- -----------0-----------0----]repeat four times
----------5--------------7 --------------0-----------0-]
-4->5-----------5->7------ -----0->3-------------------]
----------------5->7------ --------------------0-------]
end :1 

[repeat 1 but stop at the space (not at ])

-------------------------------------------------------------
----------4-----------5-----------4-----------5-----------4--
-------4-----------4-----------4-----------4-----------4-----
----4-----------4-----------4-----------4-----------4--------
-0-----------0-----------0-----------0-----------0-----------
-------------------------------------------------------------

-------------------------0-----------0-----------0-----------0-----------0-
----------0-----------0-----------5-----------5-----------5-----------5----
-------4-----------5-----------7-----------7-----------7-----------7-------
----4-----------7-----------0-----------7-----------0-----------7----------
-2-------------------------------------------------------------------------
-------------0-------------------------------------------------------------

----------0-----------0------0-
-------5-----------5--------0--
----7-----------7----------0---
-0-----------7------------0----
-------------------------3-----
------------------------0------





Comments


Popular Led Zeppelin tabs & chords
Achilles Last Stand Bass Tabs
Out On The Tiles 2 Bass Tabs
Dazed And Confused Chords
Houses Of The Holy 3 Tabs
In The Light 1 Tabs
Nobody's Fault But Mine Tabs
San Francisco Tabs
Since Ive Been Loving You Complete Tabs
Swan Song Tabs
All My Love Ukulele


Song lyrics



↑ Back to top | Tablatures and chords are parodies/interpretations of the original songs. You may use it for private study, scholarship, research or language learning purposes only
© 2014 AZChords.com Contact us | Privacy policy | DMCA | Add/correct tabs | Request tabs | Top 50 tabs