>
 >
Boogie With Stu

Boogie With Stu Guitar Tabs

Led Zeppelin - Boogie With Stu chords, tabs, tablatures, lyrics

Guitar lessons | Add/correct | Request | Top 50 tabs Artists:  A B C D E F G H I J K L M N O P Q R S T U V W X Y Z 0-9

Boogie With Stu Guitar Tabs – Led Zeppelin

CD, Sheet music, Poster

Do you like Boogie With Stu? Share with your friends now
TabsTabs v2Tabs v3Tabs v4
Led Zeppelin's Boogie with Stu

figure 1
e----------------------------------------------------------------
B----------------------------------------------------------------
G--2--2--------2--------2-*-------------------------------------------
D--2--2--4--2--2--------2-*---------------------------------------------
A--0--0--0--0--0--3--4--0-*-----------------------------------------------
E----------------------------------------------------------------
    ***allow this last A to ring into beat 1 of next bar.
figure 2

e----------------------------------------------------------------
B----------------------------------------------------------------
G--2--2--------2--2--4--2----------------------------------------------
D--0--0--3--4--0--0--0--0------------------------------------------------
A----------------------------------------------------------------
E----------------------------------------------------------------

figure 3


e----------------------------------------------------------------
B----------------------------------------------------------------
G----------------------------------------------------------------
D----------------------------------------------------------------
A--2--2--4--2--2--4--2--------------------------------------------------
E--0--0--0--0--0--0--0-------------------------------------------------

figure 4


e----------------------------------------------------------------
B----------------------------------------------------------------
G----------------------------------------------------------------
D--2--2--------2--2--4--4----------------------------------------------
A--0--0--3--4--0--0--0--0------------------------------------------------
E----------------------------------------------------------------

figure 5


e----------------------------------------------------------------
B----------------------------------------------------------------
G--2--2--------2--2--4--2----------------------------------------------
D--0--0--3--4--0--0--0--0------------------------------------------------
A----------------------------------------------------------------
E----------------------------------------------------------------

Figure 6


e----------------------------------------------------------------
B----------------------------------------------------------------
G----------------------------------------------------------------
D----------------------------------------------------------------
A--2--2--------2--2--4--2----------------------------------------------
E--0--0--3--4--0--0--0--0------------------------------------------------

Figure 7


e----------------------------------------------------------------
B--2*--------------------------------------------------------------
G--2*--------------------------------------------------------------
D--2*--------------------------------------------------------------
A--0*--------------------------------------------------------------
E----------------------------------------------------------------
   *allow to ring for two bars

and now for the order: figure 1 4x
		       figure 2 2x
                       figure 1 2x
                       figure 3 2x
	               figure 4 6x
                       figure 5 2x
                       figure 4 2x
                       figure 6 2x
                       figure 7 1x
This order applies to the first verse.  As the song progresses, figures one 
and four are interchanged occasionally (as are 2 and 5 as well and 3 and 6, 
respectively).





Comments


Popular Led Zeppelin tabs & chords
Communication Breakdown Bass Tabs
Good Times Bad Times 1 Bass Tabs
Heartbreaker 3 Bass Tabs
Living Loving Maid Bass Tabs
The Crunge Bass Tabs
Babe, I'm Gonna Leave You Drum Tabs
Baby Come On Home Tabs
Fool In The Rain 1 Tabs
Heartbreaker 1 Tabs
Immigrant Song 2 Tabs


Song lyrics



↑ Back to top | Tablatures and chords are parodies/interpretations of the original songs. You may use it for private study, scholarship, research or language learning purposes only
© 2014 AZChords.com Contact us | Privacy policy | DMCA | Add/correct tabs | Request tabs | Top 50 tabs