» » »

Boogie With Stu Tabs (ver.3)

Artists:  A B C D E F G H I J K L M N O P Q R S T U V W X Y Z # 

Boogie With Stu Tabs (ver.3)

Led Zeppelin
Rating:
0/5 (0 votes)

Hard to play? Try these video lessons and learn fast.
                e|---------------------------------------------------------------------------
b|---------------------------------------------------------------------------
g|---------------------------------------------------------------------------
d|--2--2--4--4--2--2--4--2----2--4--2----2--2--4--2----2--2--4--4--2--2--4--2                                                                           
a|--0--0--0--0--0--0--0--0----0--0--0----0--0--0--0----0--0--0--0--0--0--0--0
E|---------------------------------------------------------------------------                                                                           


e|---------------------------------------------------------------------------
b|---------------------------------------------------------------------------
g|----------------------------2--2--4--4--2--2--4--2----2--4--2----2--2--4--2
d|--2--4--2----2--2--4--2-----0--0--0--0--0--0--0--0----0--0--0----0--0--0--0                                                                           
a|--0--0--0----0--0--0--0----------------------------------------------------
E|---------------------------------------------------------------------------                                                                           


e|---------------------------------------------------------------------------
b|---------------------------------------------------------------------------
g|--2--2--4--4--2--2--4--2----2--4--2----2--2--4--2--------------------------
d|--0--0--0--0--0--0--0--0----0--0--0----0--0--0--0----2--2--4--4--2--2--4--2                                                                           
a|-----------------------------------------------------0--0--0--0--0--0--0--0
E|---------------------------------------------------------------------------                                                                           


e|---------------------------------------------------------------------------
b|---------------------------------------------------------------------------
g|---------------------------------------------------------------------------
d|--2--4--2----2--2--4--2----------------------------------------------------                                                                           
a|--0--0--0----0--0--0--0----2--2--4--4--2--2--4--2----2-----2----2--2--4--2-
E|---------------------------0--0--0--0--0--0--0--0----0--3--0----0--0--0--0-                                                                           


    E
e|-----|              
b|-----|         
g|--1--|         
d|--2--|                                                                           
a|--2--|
E|--0--|                                                                           



figure 1
e----------------------------------------------------------------
B----------------------------------------------------------------
G--2--2--------2--------2-*-------------------------------------------
D--2--2--4--2--2--------2-*---------------------------------------------
A--0--0--0--0--0--3--4--0-*-----------------------------------------------
E----------------------------------------------------------------
    ***allow this last A to ring into beat 1 of next bar.
figure 2

e----------------------------------------------------------------
B----------------------------------------------------------------
G--2--2--------2--2--4--2----------------------------------------------
D--0--0--3--4--0--0--0--0------------------------------------------------
A----------------------------------------------------------------
E----------------------------------------------------------------

figure 3


e----------------------------------------------------------------
B----------------------------------------------------------------
G----------------------------------------------------------------
D----------------------------------------------------------------
A--2--2--4--2--2--4--2--------------------------------------------------
E--0--0--0--0--0--0--0-------------------------------------------------

figure 4


e----------------------------------------------------------------
B----------------------------------------------------------------
G----------------------------------------------------------------
D--2--2--------2--2--4--4----------------------------------------------
A--0--0--3--4--0--0--0--0------------------------------------------------
E----------------------------------------------------------------

figure 5


e----------------------------------------------------------------
B----------------------------------------------------------------
G--2--2--------2--2--4--2----------------------------------------------
D--0--0--3--4--0--0--0--0------------------------------------------------
A----------------------------------------------------------------
E----------------------------------------------------------------

Figure 6


e----------------------------------------------------------------
B----------------------------------------------------------------
G----------------------------------------------------------------
D----------------------------------------------------------------
A--2--2--------2--2--4--2----------------------------------------------
E--0--0--3--4--0--0--0--0------------------------------------------------

Figure 7


e----------------------------------------------------------------
B--2*--------------------------------------------------------------
G--2*--------------------------------------------------------------
D--2*--------------------------------------------------------------
A--0*--------------------------------------------------------------
E----------------------------------------------------------------
   *allow to ring for two bars

and now for the order: figure 1 4x
		       figure 2 2x
                       figure 1 2x
                       figure 3 2x
	               figure 4 6x
                       figure 5 2x
                       figure 4 2x
                       figure 6 2x
                       figure 7 1x
            
Hard to play? Try these video lessons and learn fast. | Correct




comments powered by Disqus
↑ Back to top | Tablatures and chords are parodies/interpretations of the original songs. You may use it for private study, scholarship, research or language learning purposes only