>
 >
All Of My Love

All Of My Love Guitar Tabs

Led Zeppelin - All Of My Love chords, tabs, tablatures, lyrics

Guitar lessons | Add/correct | Request | Top 50 tabs Artists:  A B C D E F G H I J K L M N O P Q R S T U V W X Y Z 0-9

All Of My Love Guitar Tabs – Led Zeppelin

CD, Sheet music, Poster

Do you like All Of My Love? Share with your friends now
Tabs
Intro

e:--0-0-0-0--3-3-3-3--1-1-1~--|--0-0-0-0--3-3-3-3--2-2-2~------------|
B:--1-1-1-1--3-3-3-3--3-3-3~--|--1-1-1-1--3-3-3-3--3-3-3~------------|repeat
G:--2-2-2-2--0-0-0-0--2-2-2~--|--2-2-2-2--0-0-0-0--2-2-2~------------|twice
D:--2-2-2-2--0-0-0-0--0-0-0~--|--2-2-2-2--0-0-0-0--0-0-0~------------|
A:--0-0-0-0--2-2-2-2----------|--0-0-0-0--2-2-2-2--------------------|repeats 
E:-----------3-3-3-3----------|-----------3-3-3-3--------------------|through hole
								      song except
Verse 1								      the chorus'
E-0-----3-----------------|-0-----3----------5---7p5---------|
B-1-----3-----6b8r6-------|-1-----3------------5-----5/3-5p3-|
G-2-----0-----------------|-2-----0------7b9-----------------|
D-2-----0-----------------|-2-----0--------------------------|
A-0-----2-----------------|-0-----2--------------------------|
E-------3-----------------|-------3--------------------------|

E-0-----3-----------------|-0-----3----------5---7p5---------|
B-1-----3-----6b8r6-6b8r6-|-1-----3------------5-----5/3-5p3-|
G-2-----0-----------------|-2-----0------7b9-----------------|
D-2-----0-----------------|-2-----0--------------------------|
A-0-----2-----------------|-0-----2--------------------------|
E-------3-----------------|-------3--------------------------|

E-0-----3-----------------|-0-----3--------------------------|
B-1-----3-----6b8~~~~~r6--|-1-----3--------3--3/5---3p1h3~~--|
G-2-----0-----------------|-2-----0-----5--------------------|
D-2-----0-----------------|-2-----0--------------------------|
A-0-----2-----------------|-0-----2--------------------------|
E-------3-----------------|-------3--------------------------|

E-0-----3-----------------|-0-----3------------3-------------|
B-1-----3-----6b8r6-6b8r6-|-1-----3--------------3-1h3p1-0---|
G-2-----0-----------------|-2-----0------------------------2-|
D-2-----0-----------------|-2-----0--------------------------|
A-0-----2-----------------|-0-----2--------------------------|
E-------3-----------------|-------3--------------------------|

Chorus
  C                       Em/B             Am    Am/G  G
E-----------------------------------------------------------|
B-15b17--15b17~~---13-15--15b17~~-15-13-15-13h15p13---------|
G-----------------------------------------------------------|
D-----------------------------------------------------------|
A-----------------------------------------------------------|
E-----------------------------------------------------------|
  F   G7
E------------------------------|
B-6--8-8b10--8b10---8---6h8p6--|
G------------------------------|
D------------------------------|
A------------------------------|
E------------------------------|

  C                 Em/B               Am     Am/G  G 
E-----------------------------------------------------------|
B-15b17~~-15-13-15--15b17--15-13h15p13-13h15p13~~-13h15p13--|
G-----------------------------------------------------------|
D-----------------------------------------------------------|
A-----------------------------------------------------------|
E-----------------------------------------------------------|
  F   
E------------------------------|
B-6--8-8b10--8b10--------------|
G------------------------------|
D------------------------------|
A------------------------------|
E------------------------------|

Verse 2
E-0-----3-----------------|-0-----3------5---7p5-----7p5-----|
B-1-----3-----6b8r6-6b8r6-|-1-----3--------5-----6p5-----6p5-|
G-2-----0-----------------|-2-----0--7b9---------------------|
D-2-----0-----------------|-2-----0--------------------------|
A-0-----2-----------------|-0-----2--------------------------|
E-------3-----------------|-------3--------------------------|

E-0-----3-----------------|-0-----3--------------------------|
B-1-----3-----6b8~~~~~r6--|-1-----3------------5b7r5-5b7r5---|
G-2-----0-----------------|-2-----0----------7---------------|
D-2-----0-----------------|-2-----0--------7-----------------|
A-0-----2-----------------|-0-----2--------------------------|
E-------3-----------------|-------3--------------------------|

Chorus 2
   C               Em/B                       Am   Am/G   G
E-------------------------------------------------------------------|
B-15b17~--15-13-15-15b17~17~~--15--13h15p13---13h15p13~-13h15p13~---|
G-------------------------------------------------------------------|
D-------------------------------------------------------------------|
A-------------------------------------------------------------------|
E-------------------------------------------------------------------|

  F         G
E------------------------------|
B-6--8-8b10--8b10--------------|
G------------------------------|
D------------------------------|
A------------------------------|
E------------------------------|

  C                 Em/B           Am     Am/G  G 
E-----------------------------------------------------|
B-15b17~~-15-13-15--15b17--15-13h15p13-13h15p13~~-----|
G-----------------------------------------------------|
D-----------------------------------------------------|
A-----------------------------------------------------|
E-----------------------------------------------------|
  F   
E------------------------------|
B-6--8-8b10--8b10--------------|
G------------------------------|
D------------------------------|
A------------------------------|
E------------------------------|

Interlude
Guitar 1
Bb Bb Bb F  F  F  Bb Bb Bb F  F  F  Bb Bb Bb F  C  C
Guitar 2
E---------------------------------------------------------------------------|
B---------------------------------------------------------------------------|
G----------------------------------------------------------5---5-7-7b9-7-5~-|
D--------------------------------------------------5---5-7---7--------------|
A----------------------------------------------------7----------------------|
E---------------------------------------------------------------------------|

Guitar 1
Bb Bb Bb F  F  F  Bb Bb Bb F  F  F  Bb Bb Bb F  C  C
Guitar 2
E---------------------------------------------------------------------------|
B-------------------------------------------------10b12r10------------------|
G-----------------------------------------------------------7p5---7p5---5~--|
D---------------------------------------------------------------7-----7-----|
A---------------------------------------------------------------------------|
E---------------------------------------------------------------------------|

Guitar 1
Bb Bb Bb F  F  F  Bb Bb Bb F  F  F  Bb Bb Bb F  D  D   C

Guitar 2
 G       F        G6  	    Dm       C/G       G7   Am/G    G
E-------------------------------------------------------------|
B-8b10r8---6b8r6---10b12r10---8b10r8---6b8r6---/5-------------|
G---------------------------------------------------7b9r7-----|
D-------------------------------------------------5--------5--|
A-------------------------------------------------------------|
E-------------------------------------------------------------|

Solo for guitar
E--------------------5-4-5-7-5-4-5-8---7-5-------------5------------|
B--------------5-4-5-----------------------8-6----5------5-----5----|
G--------5-4-5---------------------------------------------5-7---5-7|
D--7-6-7------------------------------------------------------------|
A-------------------------------------------------------------------|
E-------------------------------------------------------------------|

E-------------------------------------------------------------------|
B------------------------------------------------------------5----5-|
G-5-4-------4---5-4----------------------------4----4-5--4-5----7---|
D-----7-5-7---5-----7-5-4-------------7-7--6-7----7-----------------|
A-------------------------7-5-------7-------------------------------|
E-------------------------------------------------------------------|

E--5--4-5-7-5-4-5-8----7-8-10---7-8-10-7-8-10-8-7---------7-8----7--|
B-------------------------------------------------10-8-10-----10----|
G-------------------------------------------------------------------|
D-------------------------------------------------------------------|
A-------------------------------------------------------------------|
E-------------------------------------------------------------------|

E-5-5----5----------|
B------8------------|
G-------------------|
D-------------------|
A-------------------|
E-------------------|

Acoustic solo
E-------------------------------------------------------------------|
B-----12-13---15b17---15b17---15-15----13-12------------------------|repeat
G--14----------------------------------------14---12-10-12-/14------|4 times
D-------------------------------------------------------------------|
A-------------------------------------------------------------------|
E-------------------------------------------------------------------|

Under acoustic solo
E-0-----3-----1-----1-----|-0-----3-----2-----2-----|
B-1-----3-----1-----1-----|-1-----3-----3-----3-----|
G-2-----0-----2-----2-----|-2-----0-----2-----2-----|
D-2-----0-----3-----3-----|-2-----0-----0-----0-----|
A-0-----2-----------------|-0-----2-----------------|
E-------3-----------------|-------3-----------------|

E-0-----3-----1---------------|-0-----3------5---7p5-----7p5-----|
B-1-----3-----1---6b8r6-6b8r6-|-1-----3--------5-----6p5-----6p5-|
G-2-----0-----2---------------|-2-----0--7b9---------------------|
D-2-----0-----3---------------|-2-----0--------------------------|
A-0-----2---------------------|-0-----2--------------------------|
E-------3---------------------|-------3--------------------------|

Interlude
Guitar 1
Bb Bb Bb F  F  F  Bb Bb Bb F  F  F  Bb Bb Bb F  C  C
Guitar 2
E-----------------------------------------------------------------5--------------|
B-------------------------------------------------------------------8p5--8b10r8--|
G------------------------------------------------------5---5-7b9-----------------|
D--------------------------------------------------5h7---7-----------------------|
A--------------------------------------------------------------------------------|
E--------------------------------------------------------------------------------|

Guitar 1
Bb Bb Bb F  F  F  Bb Bb Bb F  F  F  Bb Bb Bb F  C  C
Guitar 2
E----------------------------------------------------------5-------------------|
B--------------------------------------------------------5---8p5--8b10r8-------|
G--------------------------------------------------7b9--------------------7-5--|
D------------------------------------------------------------------------------|
A------------------------------------------------------------------------------|
E------------------------------------------------------------------------------|

Guitar 1
Bb Bb Bb F  F  F  Bb Bb Bb F  F  F  Bb Bb Bb F  D  D   C

Guitar 2
 G       F        G6  	    Dm       C/G       G7   Am/G    G
E-------------------------------------------------------------|
B-6b8r6----8b10r8--10b12r10---8b10r8---6b8r6---/5-------------|
G---------------------------------------------------7b9r7-----|
D-------------------------------------------------5--------5--|
A-------------------------------------------------------------|
E-------------------------------------------------------------|

Verse 3
E-0-----3-----------------|-0-----3------5---7p5-----7p5-----|
B-1-----3-----6b8r6-6b8r6-|-1-----3--------5-----6p5-----6p5-|
G-2-----0-----------------|-2-----0--7b9---------------------|
D-2-----0-----------------|-2-----0--------------------------|
A-0-----2-----------------|-0-----2--------------------------|
E-------3-----------------|-------3--------------------------|

E-0-----3-----------------|-0-----3--------------------------|
B-1-----3-----6b8~~~~~r6--|-1-----3------5-------------------|
G-2-----0-----------------|-2-----0--------7-7---7b9-7b9-7b9-|
D-2-----0-----------------|-2-----0------------7-------------|
A-0-----2-----------------|-0-----2--------------------------|
E-------3-----------------|-------3--------------------------|

Chorus
  C                       Em/B             Am    Am/G  G
E-----------------------------------------------------------|
B-15b17--15b17~~---13-15--15b17~~-15-13-15-13h15p13---------|
G-----------------------------------------------------------|
D-----------------------------------------------------------|
A-----------------------------------------------------------|
E-----------------------------------------------------------|
  F   G7
E------------------------------|
B-6--8-8b10--8b10---8---6h8p6--|
G------------------------------|
D------------------------------|
A------------------------------|
E------------------------------|

  C                 Em/B               Am     Am/G  G 
E-----------------------------------------------------------|
B-15b17~~-15-13-15--15b17--15-13h15p13-13h15p13~~-13h15p13--|
G-----------------------------------------------------------|
D-----------------------------------------------------------|
A-----------------------------------------------------------|
E-----------------------------------------------------------|
  F   
E------------------------------|
B-6--8-8b10--8b10--------------|
G------------------------------|
D------------------------------|
A------------------------------|
E------------------------------|

Then do both of the chorus' after another but everything two frets
higher, the octave changes from C to D





Comments


Popular Led Zeppelin tabs & chords
Four Sticks Bass Tabs
How Many More Times 3 Bass Tabs
Tea For One 2 Bass Tabs
In My Time Of Dying Drum Tabs
Bron Y Aur Stomp Complete Tabs
Down By The Seaside 1 Tabs
Hey Hey What Can I Do 3 Tabs
No Quarter 2 Tabs
Thank You Tabs
White Summer Tab Tabs


Song lyrics



↑ Back to top | Tablatures and chords are parodies/interpretations of the original songs. You may use it for private study, scholarship, research or language learning purposes only
© 2014 AZChords.com Contact us | Privacy policy | DMCA | Add/correct tabs | Request tabs | Top 50 tabs