>
 >
All My Love 1

All My Love 1 Bass Tabs

Led Zeppelin - All My Love 1 chords, tabs, tablatures, lyrics

Guitar lessons | Add/correct | Request | Top 50 tabs Artists:  A B C D E F G H I J K L M N O P Q R S T U V W X Y Z 0-9

All My Love 1 Bass Tabs – Led Zeppelin

CD, Sheet music, Poster

Do you like All My Love 1? Share with your friends now
Bass TabsBass Tabs v2ChordsChords v2Drum TabsTabsTabs v2Tabs v3Ukulele
All My Love
Led Zeppelin
Tab Edited by Tery
Tuning : E A D G 	Time Signature: 4/4

 tempo 91|       |       |        |       |       |       |        
|------------------------------0-|2-----------2---0-----------0---|
|----------------------------2---|--------------------------------|
|--------------------------------|--------------------------------|
|--------------------------------|--------------------------------|

 |       |       |       |        |       |       |       |        
|------------------------------0-|2-----------2-2-0-----------2-2-|
|----0-------0-------0-------2---|--------------------------------|
|--------------------------------|--------------------------------|
|3-------------------------------|--------------------------------|

 |       |       |       |        |       |       |       |        
|------------------------------0-|2-----------2---0-----------0---|
|0-0-0-------0---0-0-0-------2---|--------------------------------|
|--------0-----------------------|--------------------------------|
|--------------------------------|--------------------------------|

 |       |       |       |        |       |       |       |        
|--------------------------------|2-----------5-2-----------------|
|0---0---0---0-------0---0---2---|----------------5---5-----------|
|--------------------------------|--------------------------------|
|--------------------------------|--------------------------------|

 |       |       |       |        |       |       |       |        
|------------------------------0-|2---------------0-----------0-0-|
|0-----------0---3---3---3---3---|--------------------------------|
|--------------------------------|--------------------------------|
|--------------------------------|--------------------------------|

 |       |       |       |        |       |       |       |        
|------------------------------0-|2---2-----------0---------------|
|0-0-----0---0---0---0---0---2---|----------------------------0---|
|----0---------------------------|------------3-------------------|
|--------------------------------|--------------------------------|

 |       |       |       |        |       |       |       |        
|------------------------------0-|2-----------2---0-----------0-2-|
|0---0-------0---0---0---0---2---|--------------------------------|
|--------------------------------|--------------------------------|
|--------------------------------|--------------------------------|

 |       |       |       |        |       |       |       |        
|--------------------------------|2---------------0-----------0---|
|0---0---0---0---0-0-0---0-------|--------------------------------|
|----------------------0-----0-0-|--------------------------------|
|--------------------------------|--------------------------------|

 |       |       |       |        |       |       |       |        
|------------------------------0-|2-----------2-2-0---------------|
|0-----------0---0---0---0-2-3---|----------------------------0-0-|
|--------------------------------|--------------------------------|
|--------------------------------|--------------------------------|

 |       |       |       |        |       |       |       |        
|------------------------------0-|2---------------0-----------0-2-|
|0---0---0---0---0---0---0---2---|--------------------------------|
|--------------------------0-----|------------0-------------------|
|--------------------------------|--------------------------------|

 |       |       |       |        |       |       |       |        
|------------------------------0-|2-----------4-2-----------------|
|----2---0---0---0---0---0---2---|----------------5---5-------5---|
|0-------------------------------|------------------------------5-|
|--------------------------------|--------------------------------|

 |       |       |       |        |       |       |       |        
|--------------------------------|----------------------------0-5-|
|--------0---0-------0---0---0---|--------------------------2-----|
|0-3-0---------------------0-----|3-----------3---3-------3-------|
|--------------------------------|--------------------3-----------|

 |       |       |       |        |       |       |       |        
|4---4-------4-------------------|2-----------5-2-----------------|
|----------------5---2-----------|----------------5---------------|
|------------------------5---3---|----------------------------5-5-|
|--------------------------------|--------------------------------|

 |       |       |       |        |       |       |       |        
|------------------------2---4-5-|----------------------------5---|
|3---3---3---3-------5-----------|----------------2---2-5-5-5-----|
|--------------------------------|3-----------3-------------------|
|--------------------------------|--------------------------------|

 |       |       |       |        |       |       |       |        
|4-----------2-------2---2-------|2-----------2---0-----------0-0-|
|--------------------------5-2-5-|--------------0-----------------|
|--------------------------------|--------------------------------|
|--------------------------------|--------------------------------|

 |       |       |       |        |       |       |       |        
|--------------------------------|------------2---0---------------|
|3---3-------3-------------------|--------------2-----------------|
|--------3-----------------------|0-------------------------------|
|--------------------------------|--------------------------------|

 |       |       |       |        |       |       |       |        
|------------------------7-------|2-----------4-----------------2-|
|------------------------------5-|----------------5-----------5---|
|5-----------5---5-----------8---|--------------------------------|
|--------------------------------|--------------------------------|

 |       |       |       |        |       |       |       |        
|------------------------------0-|2-----------2---0-----------0-2-|
|0---0-------0---0-0-----0---2---|--------------------------------|
|--------0-----------0-----------|--------------------------------|
|--------------------------------|--------------------------------|

 |       |       |       |        |       |       |       |        
|------------------------7-------|2-----------2-2-0-----------0---|
|----------------------7-------5-|--------------------------------|
|5---------------5---8-------8---|--------------------------------|
|------------3-------------------|--------------------------------|

 |       |       |       |        |       |       |       |        
|--------------------------------|----------------------------5---|
|0---0---0---0---0---0---0-------|----------------2---2---5-------|
|----------------------------0-2-|3-----------3-------------------|
|--------------------------3-----|--------------------------------|

 |       |       |       |        |       |       |       |        
|4-----------2-------------------|2-----------5-2-----------------|
|--------------------5---2-------|----------------5---5-------5-5-|
|--------------------------5-3---|--------------------------------|
|--------------------------------|--------------------------------|

 |       |       |       |        |       |       |       |        
|--------------------------0-2-4-|5-----------5---------------5---|
|3---3---3---3---3-------3-------|--------------------2---5-------|
|------------------3-------------|----------------3---------------|
|--------------------1-----------|--------------------------------|

 |       |       |       |        |       |       |       |        
|4-------------2-----------------|------------9-------------------|
|------------5h------5---2-----5-|7-------------7-------------7---|
|--------------------------5-3---|----------------10--10--------8-|
|--------------------------------|--------------------------------|

 |       |       |       |        and so on...    |       |        
|--------------------------------|--------------------------------|
|3---3---------------------------|--------------------------------|
|--------3-----------------------|--------------------------------|
|------------1-------------------|--------------------------------|





Comments


Popular Led Zeppelin tabs & chords
Kashmir Bass Tabs
Rock And Roll Bass Tabs
Since Ive Been Lovin You Bass Tabs
Poor Tom Chords
Bron Yr Aur 1 Tabs
Communication Breakdown 2 Tabs
Kashmir 4 Tabs
Something Else Tabs
Living Loving Maid Ukulele
Thats The Way Ukulele


Song lyrics



↑ Back to top | Tablatures and chords are parodies/interpretations of the original songs. You may use it for private study, scholarship, research or language learning purposes only
© 2014 AZChords.com Contact us | Privacy policy | DMCA | Add/correct tabs | Request tabs | Top 50 tabs